» » »

Brand New - Moshi Moshi Tabs

Artists:  A B C D E F G H I J K L M N O P Q R S T U V W X Y Z # 

Moshi Moshi Tabs

(ver. 2) Click to play this song!
Brand New
 Rating:
4/5 (4 votes)

 Moshi Moshi lessons Tabs too difficult? Try these video lessons and learn fast
 
                Tuning: Standard

Okay, so I was lookin for a good tab of this song and couldn't find
one with better than a 3 star, so I decided to go for it my self.
Hopefully you guys like it. I'm pretty sure its 100% accurate. 


Intro
E-----------------------------------------------------------------|
B-----------------------------------------------------------------|
G------------------------------------7-77-7-7-77-7-7-77-7-7-77----|
D-x-xx-x-x-7-77-7-7-77-7-7-77-7-7-77-7-77-7-7-77-7-7-77-7-7-77----|
A-x-xx-x-x-7-77-7-7-77-7-7-77-7-7-77-5-55-5-5-55-5-5-55-5-5-55----|
E-x-xx-x-x-5-55-5-5-55-5-5-55-5-5-55------------------------------|

Intro cont.
E-----------------------------------------------------------------|
B-----------------------------------------------------------------|
G---------------------------7~---/---------------------\---77-----|
D-7-77-7-7-77-7-7-77-7-7-77-7~--/-knock-on-guitar-twice-\--77-----|
A-7-77-7-7-77-7-7-77-7-7-77-5~--\-----------------------/--55-----|
E-5-55-5-5-55-5-5-55-5-5-55---------------------------------------|
                                If you're using an acoustic just
                                literally knock on it to get the same
                                sound as you get in the song.

Verse("I think I'm crazy baby...")
E-----------------------------------------------------------------|
B-----------------------------------------------------------------|
G---------------------------7-77-7-7-77-7-7-77-7-7-99-9-----------|
D-7-77-7-7-77-7-7-77-7-7-77-7-77-7-7-77-7-7-77-7-7-99-9-----------|
A-7-77-7-7-77-7-7-77-7-7-77-5-55-5-5-55-5-5-55-5-5-77-7-----------|\
E-5-55-5-5-55-5-5-55-5-5-55---------------------------------------| \
                                                                     x2
E-----------------------------------------------------------------| /
B-----------------------------------------------------------------|/
G---------------------------7-77-7-7-77-7-7-77-7-7-77-7-----------|
D-7-77-7-7-77-7-7-77-7-7-77-7-77-7-7-77-7-7-77-7-7-77-7-----------|
A-7-77-7-7-77-7-7-77-7-7-77-5-55-5-5-55-5-5-55-5-5-55-5-----------|
E-5-55-5-5-55-5-5-55-5-5-55---------------------------------------|

Pre-Chorus
E-----------------------------------------------------------------|
B-----------------------------------------------------------------|
G-4-44-4-4-44-4-4-44-4-4-44-7-77-7-7-77-7-7-77-7-7-77-7-----------|
D-4-44-4-4-44-4-4-44-4-4-44-7-77-7-7-77-7-7-77-7-7-77-7-----------|
A-2-22-2-2-22-2-2-22-2-2-22-5-55-5-5-55-5-5-55-5-5-55-5-----------|
E-----------------------------------------------------------------|

E-----------------------------------------------------------------|
B-----------------------------------------------------------------|
G-4-44-4-4-44-4-4-44-4-4-44-9-9999-7-7777-6-6666-4-4444-----------|
D-4-44-4-4-44-4-4-44-4-4-44-9-9999-7-7777-6-6666-4-4444-----------|
A-2-22-2-2-22-2-2-22-2-2-22-7-7777-5-5555-4-4444-2-2222-----------|
E-----------------------------------------------------------------|

Chorus("Are you thinkin of me...")
E-----------------------------------------------------------------|
B-----------------------------------------------------------------|
G-7-777-7-77-9-999-9-99-------------------------------------------|
D-7-777-7-77-9-999-9-99-7-7777-6-6666-4-4444-2-2222---------------|
A-5-555-5-55-7-777-7-77-7-7777-6-6666-4-4444-2-2222---------------|
E-----------------------5-5555-4-4444-2-2222-0-0000---------------|

E-----------------------------------------------------------------|
B---------------------------------0-------------------------------|
G-7-777-7-77-9-999-9-99-------------------------------------------|
D-7-777-7-77-9-999-9-99-7-77-7-77--7-77-7-7-77--------------------|
A-5-555-5-55-7-777-7-77-7-77-7-77--7-77-7-7-77--------------------|
E-----------------------5-55-5-55--5-55-5-5-55--------------------|

E-----------------------------------------------------------------|
B-----------------------------------------------------------------|
G-7-777-7-77-9-999-9-99-------------------------------------------|
D-7-777-7-77-9-999-9-99-7-7777-6-6666-4-4444-2-2222---------------|
A-5-555-5-55-7-777-7-77-7-7777-6-6666-4-4444-2-2222---------------|
E-----------------------5-5555-4-4444-2-2222-0-0000---------------|

E-----------------------------------------------------------------|
B-----------------------------------------------------------------|
G-7-777-7-77-9~---------------------------------------------------|
D-7-777-7-77-9~---------------------------------------------------|
A-5-555-5-55-7~---------------------------------------------------|
E-----------------------------------------------------------------|

Pre-verse
E-----------------------------------------------------------------|
B-----------------------------------------------------------------|
G-----------------------------------------------------------------|
D---7-7-7-7-7-7-7-7-7-7x------------------------------------------|
A---7-7-7-7-7-7-7-7-7-7x------------------------------------------|
E-0-5-5-5-5-5-5-5-5-5-5x------------------------------------------|

Repeat verse and chorus

Breakdown
E-----------------------------------------------------------------|
B-----------------------------------------------------------------|
G-----------------------------------------------------------------|
D-7-7-7-77-7-7-77-7-7-77------------------------------------------|
A-7-7-7-77-7-7-77-7-7-77------------------------------------------|
E-5-5-5-55-5-5-55-5-5-55------------------------------------------|

Bridge
E-----------------------------------------------------------------|
B-----------------------------------------------------------------|
G-11-1111-11-11-1111-11-9-99-9-9-99-9-7-77-7-7-77-7-7-77-7-7-77---|
D-11-1111-11-11-1111-11-9-99-9-9-99-9-7-77-7-7-77-7-7-77-7-7-77---|
A--9--9-9--9--9--9-9--9-7-77-7-7-77-7-5-55-5-5-55-5-5-55-5-5-55---|
E-----------------------------------------------------------------|

E-----------------------------------------------------------------|
B-------------------------------------------------------0---------|
G-----------------------------------------------------------------|
D-4-44-4-4-44-4-2-22-2-2-22-2-7-77-7-7-77-7-7-77-7-7-77-----------|
A-4-44-4-4-44-4-2-22-2-2-22-2-7-77-7-7-77-7-7-77-7-7-77-----------|
E-2-22-2-2-22-2-0-00-0-0-00-0-5-55-5-5-55-5-5-55-5-5-55-----------|

E-----------------------------------------------------------------|
B-----------------------------------------------------------------|
G-----------------------------------------------------------------|
D-4-44-4-4-44-4-2-22-2-2-22-2-7-777-6-666-4-444-2-222-------------|
A-4-44-4-4-44-4-2-22-2-2-22-2-7-777-6-666-4-444-2-222-------------|
E-2-22-2-2-22-2-0-00-0-0-00-0-5-555-4-444-2-222-0-000-------------|

Now just repeat the chorus 3 times for the final chorus.

Outro
E-----------------------------------------------------------------|
B-----------------------------------------------------------------|
G-----------------------------------------------------------------|
D-7-777-7-777-7--7\-----------------------------------------------|
A-7-777-7-777-7--7\-----------------------------------------------|
E-5-555-5-555-5--5\-----------------------------------------------|

And thats it. If you have any questions, suggestions, hate mail or
any other kind of thing like that, either leave a comment or drop
Thanks, and please rate.
            
Submit corrections


        Moshi Moshi lessons Hard to play? Try these video lessons and learn fast Moshi Moshi lessons
        
↑ Back to top | Tablatures and chords for acoustic guitar and electric guitar, ukulele, drums are parodies/interpretations of the original songs. You may use it for private study, scholarship, research or language learning purposes only