» » »

Brand New - Luca Tabs

Artists:  A B C D E F G H I J K L M N O P Q R S T U V W X Y Z # 

Luca Tabs

(ver. 3) Click to play this song!
Brand New
 Rating:
4/5 (4 votes)

 Luca lessons Tabs too difficult? Try these video lessons and learn fast
 
                Intro/Verse
e|-----------------------------------------------------|
b|----------1-----------1-----------1-----------1------|
g|------2-----2-----2-----2-----2-----2-----2-----2----|
d|----0---0-------0---0-------0---0-------0---0--------|
a|--0-----------2-----------3-----------2--------------|
E|-----------------------------------------------------|
(repeat?)(Idk it might be 16 times i am not too sure you guys can count it out)

Chorus
e|---------------------------------------------------|
b|----------1-----------1-----------0-----------0----|
g|------0-----0-----0-----0-----0-----0-----0-----0--|
d|----2---2-------2---2-------2---0-------2---0------|
a|--3-----------3------------------------------------|
E|--------------------------0-----------0------------|

e|---------------------------|
b|----------0-----------0----|
g|------0-----0-----0-----0--|
d|----2---0-------2---0------|
a|---------------------------|
E|--0-----------0------------|
(Quiet part- I am not sure if this is right, it is either this over and over again until 
hits the part were he sings the chorus)
e|---------------------------------------------------|
b|----------1-----------1-----------1-----------1----|
g|------2-----2-----2-----2-----2-----2-----2-----2--|
d|----0---0-------0---0-------0---0-------0---0------|
a|--0-----------2-----------3-----------2------------|
E|---------------------------------------------------|
                    OR
(This is what I think is also the quiet part, I am more sure of this being the entire 
part but IDK you guys try it out and see what you come up with)
e|---------------------------------------------------|
b|----------1-----------1-----------0-----------0----|
g|------0-----0-----0-----0-----0-----0-----0-----0--|
d|----2---2-------2---2-------2---0-------2---0------|
a|--3-----------3------------------------------------|
E|--------------------------0-----------0------------|

e|---------------------------|
b|----------0-----------0----|
g|------0-----0-----0-----0--|
d|----2---0-------2---0------|
a|---------------------------|
E|--0-----------0------------|

Solo/Outro
e|-----------------------------------------|
b|-----------------------------------------|
g|-----------------------------------------|
d|--------10b-------9b-------7b---------5--|
a|--7-7-7-----7-7-7----7-7-7----7-7-5-7----|
E|-----------------------------------------|
                                   (play 8X)

e|-----------------------------------------|
b|-----------------------------------------|
g|-----------------------------------------|
d|-----------------------------------------|
a|--------5--------------------------------|
E|--5-7-8---8-7-5-7-3-1-3-0----------------|
                                   (play 4X)

e|--0----|
b|--1----|
g|--2----|
d|--2----|
a|--0----|
E|-------|
            
Submit corrections


        Luca lessons Hard to play? Try these video lessons and learn fast Luca lessons
        
↑ Back to top | Tablatures and chords for acoustic guitar and electric guitar, ukulele, drums are parodies/interpretations of the original songs. You may use it for private study, scholarship, research or language learning purposes only