» » »

Brand New - Last Chance To Lose Your Keys Tabs

Artists:  A B C D E F G H I J K L M N O P Q R S T U V W X Y Z # 

Last Chance To Lose Your Keys Tabs

(ver. 1) Click to play this song!
Brand New
 Rating:
4/5 (4 votes)

 Last Chance To Lose Your Keys lessons Tabs too difficult? Try these video lessons and learn fast
 
                Part I  - Lead 
Part II - Rhythm

I

Intro

eb|---------------------|
Bb|---------------------|
Gb|-9---------9---------|
Db|-----11--9-----11--9-|
Ab|---------------------|
Eb|---------------------|

eb|--------------------------------|
Bb|-9-10--12--10-9---9--10--9---7--|
Gb|----------------9----------9---9|
Db|--------------------------------|
Ab|--------------------------------|
Eb|--------------------------------|

Verse

eb|-----------------------------------|
Bb|-----------------------------------|
Gb|----4--4-----4--4-----4--4-----4--4|
Db|-----------------------------------|
Ab|-xxx--x---xxx--x---xxx--x---xxx--x-|
Eb|-----------------------------------|

eb|-----------------------|
Bb|-----------------------|
Gb|-11-x-11-x-13-x-11-x-9-|
Db|-9--x-9--x-11-x-9--x-9-|
Ab|-----------------------|
Eb|-----------------------|

Pre-chorus (not completely sure)

eb|----------------------------------------------|
Bb|-----9-10-9-------9-10-12-10-9----9-10-9------|
Gb|---9-------9----9----------------9-------9----|
Db|-7-----------9-----------------7------------9-|
Ab|----------------------------------------------|
Eb|----------------------------------------------|

Chorus x2

eb|-------------------------|
Bb|-------------------------|
Gb|----------------6-6--4-4-|
Db|-2-2--4-4--2-2--6-6--4-4-|
Ab|-2-2--4-4--2-2--4-4--2-2-|
Eb|-0-0--2-2--0-0-----------|

Pre-verse

eb|-----------------------------------|
Bb|-0--5-7-5-0--5-7-5-0--5-7-10-9-7-5-|
Gb|-----------------------------------|
Db|-----------------------------------|
Ab|-----------------------------------|
Eb|-----------------------------------|

Verse

Chorus x2

Pre-chorus x2

Pre-verse x2

Then, play the pre-verse riff again during the “This isn’t high school…” part.

Chorus x8


II

Intro

eb|---------------------------------|
Bb|---------------------------------|
Gb|----6-4-----6-4--2--6-4-----6--4-|
Db|-2--6-4--2--6-4--2--6-4--2--6--4-|
Ab|-2--4-2--2--4-2--0--4-2--2--4--2-|
Eb|-0-------0---------------0-------|

Verse (palm-muted) 4x

eb|---------------------------------------------|
Bb|---------------------------------------------|
Gb|-99999999-88888888---------------------------|
Db|-99999999-88888888-1010101010101010-99999999-|
Ab|-77777777-66666666-1010101010101010-99999999-|
Eb|-------------------9-9-9-9-9-9-9-9--77777777-|

Pre-chorus (2x, on second time, stop at first note of A|2)

eb|-----------------------------------|
Bb|-----------------------------------|
Gb|-2222222222222222-4444444444444444-|
Db|-2222222222222222-4444444444444444-|
Ab|-0000000000000000-2222222222222222-|
Eb|-----------------------------------|


Chorus x2

eb|-------------------------|
Bb|-------------------------|
Gb|----------------6-6--4-4-|
Db|-2-2--4-4--2-2--6-6--4-4-|
Ab|-2-2--4-4--2-2--4-4--2-2-|
Eb|-0-0--2-2--0-0-----------|

Pre-chorus 

Verse 4x

Pre-Chorus (2x, on second time, stop at first note of A|2)

Chorus x4

No rhythm guitar on break

Chorus x8
            
Submit corrections


        Last Chance To Lose Your Keys lessons Hard to play? Try these video lessons and learn fast Last Chance To Lose Your Keys lessons
        
↑ Back to top | Tablatures and chords for acoustic guitar and electric guitar, ukulele, drums are parodies/interpretations of the original songs. You may use it for private study, scholarship, research or language learning purposes only