» » »

Brand New - Good To Know Tabs

Artists:  A B C D E F G H I J K L M N O P Q R S T U V W X Y Z # 

Good To Know Tabs

(ver. 1) Click to play this song!
Brand New
 Rating:
4/5 (4 votes)

 Good To Know lessons Tabs too difficult? Try these video lessons and learn fast
 
                Ab    F#    B     E

E-----|-----|-----|-----|  figure out strumming
B-----|-----|-----|-----|  
G-----|-----|-----|-----|
D-----|--4--|-----|-----|  x8
A--6--|--4--|--9--|--2--|
E--4--|--2--|--7--|--0--|

Picking Part after

E-------|-------|-------|-------|  x4
B-------|-------|-------|-------|
G-------|-------|-------|-------|
D---6---|---4---|---9---|---2---|
A--6----|--4----|--9----|--2----|
E-4---4-|-2---2-|-7---7-|-0---0-|


  Ab    F#    B     E

E-----|-----|-----|-----|  figure out strumming
B-----|-----|-----|-----|  
G-----|-----|-----|-----|
D-----|--4--|-----|-----|  x8
A--6--|--4--|--9--|--2--|
E--4--|--2--|--7--|--0--|

Picking Part Again

E-------|-------|-------|-------|  x4
B-------|-------|-------|-------|
G-------|-------|-------|-------|
D---6---|---4---|---9---|---2---|
A--6----|--4----|--9----|--2----|
E-4---4-|-2---2-|-7---7-|-0---0-|


  Ab    F#    B     E

E-----|-----|-----|-----|  figure out strumming
B-----|-----|-----|-----|  
G-----|-----|-----|-----|
D-----|--4--|-----|-----|  Until end of song...
A--6--|--4--|--9--|--2--|
E--4--|--2--|--7--|--0--|


Awesome Song you guys! I want to give a great shout out to Jeremy for helping me out!
            
Submit corrections


        Good To Know lessons Hard to play? Try these video lessons and learn fast Good To Know lessons
        
↑ Back to top | Tablatures and chords for acoustic guitar and electric guitar, ukulele, drums are parodies/interpretations of the original songs. You may use it for private study, scholarship, research or language learning purposes only