» » »

Brand New - Daisy Tabs

Artists:  A B C D E F G H I J K L M N O P Q R S T U V W X Y Z # 

Daisy Tabs

(ver. 3) Click to play this song!
Brand New
 Rating:
4/5 (4 votes)

 Daisy lessons Tabs too difficult? Try these video lessons and learn fast
 
                -------------------------------------------------------------------------------
-------------------------------------------------------------------------------

Tuning: Standard

e|---------------------------------------------|
B|------10---------10---------10--------10-----|
G|---------11---------11---------11--------11--|
D|---------------------------------------------|
A|-9-------------9----------9----------9-------|
E|---------------------------------------------|

e|---------------------------------------------|
B|------10---------10---------10---------10----|
G|---------11---------11---------11---------11-|
D|---------------------------------------------|
A|-12------------12---------12---------12------|
E|---------------------------------------------|

e|---------------------------------------------|
B|------10---------10---------10---------10----|
G|---------11---------11---------11---------11-|
D|-9-------------9----------9----------9-------|
A|---------------------------------------------|
E|---------------------------------------------|

e|---------------------------------------------|
B|------10---------10---------10---------10----|
G|---------11---------11---------9----------9--|
D|-12------------12------11------------11------|
A|---------------------------------------------|
E|---------------------------------------------|
            
Submit corrections


        Daisy lessons Hard to play? Try these video lessons and learn fast Daisy lessons
        
↑ Back to top | Tablatures and chords for acoustic guitar and electric guitar, ukulele, drums are parodies/interpretations of the original songs. You may use it for private study, scholarship, research or language learning purposes only