» » »

Brand New - Bed Tabs

Artists:  A B C D E F G H I J K L M N O P Q R S T U V W X Y Z # 

Bed Tabs

(ver. 2) Click to play this song!
Brand New
 Rating:
4.4/5 (11 votes)

 Bed lessons Tabs too difficult? Try these video lessons and learn fast
 
                Allow to ring throughout, repeat as necessary. 

|--------------------------------------------------------------------|
|--------------------------------------------------------------------|
|------9-----9-----7-----9-----7-------7-----5-----------4-----2-----|
|----9---9-----9-----9-----9---------7---7-----7-------4---4-----4---|
|--7-------7-----7-----7-----7-----5-------5-----5---2-------2-------|
|--------------------------------------------------------------------|

Guitar 3 - Verse 1

All harmonics. Sweep them just a bit, not slow enough to be heard as individual notes, just quick enough to 
give the effect of a sweep.

|-----7*--7*------------7*------5*----|
|-----7*--7*------------7*------5*----|
|--7*--------7*------7*------5*-------|
|--7*----------------7*------5*-------|
|-------------------------------------|
|-------------------------------------|

Guitar 1 - Chorus

Allow to ring throughout repeat on ever chorus.
   Em               Gmaj              Aadd9            Cadd9   
|----------------------------------------------------------------------|
|--------------------------------------------0----------------3--------|
|----------0----------------0------------2-----2---2------0-----0---0--|
|------2-----2---2------0-----0---0----2---2-----2------2---2-----2----|
|----2---2-----2------2---2-----2----0----------------3----------------|
|--0----------------3--------------------------------------------------|

   E?               Gmaj            Aadd9            Cadd9
|----------------------------------------------------------------------|
|-------------------------------------------0----------------3---------|
|----------3---------------0------------2-----2---2------0-----0---0---|
|------2-----2---2-----0-----0---0----2---2-----2------2---2-----2-----|
|----2---2-----2-----2---2-----2----0----------------3-----------------|
|--0---------------3---------------------------------------------------|

Guitar 2 - Chorus

Palm mute and play this twice every chorus

|---------------------------------------------------------------------|
|---------------------------------------------------------------------|
|---------------------------------------------------------------------|
|---------------------------------------------------------------------|
|------------------------------0--0--0--0-2-3-------------------------|
|--0--0--0-2-3--3--3--3-3-2-0------------------3--3--0-2-3-3-2-0------|

Guitar 4 - Post Chorus Solo

|--------------------------------------------------------|
|--------------------------------------------------------|
|--------4~--4/7-/9-7--2/4\2--0----------0---------------|
|-----5~-------------------------2---0h2---2~--/9--------|
|--7~------------------------------2---------------------|
|--------------------------------------------------------|

Guitar 2 Verse

Right after the guitar solo in the second verse, Guitar 2 plays this and does so again in the third verses. 
It's played twice per verse. It's basically just the Guitar 4 post-chorus solo but played just a little 
differently and much softer. It's hard to hear, but it's there.

|---------------------------------------------------|
|--------0~---3----3/5--3------0--------------------|
|-----0~---------------------2---2-0---------0------|
|--2~--------------------------------2---0h2---2----|
|--------------------------------------2------------|
|---------------------------------------------------|

Guitar 3 - Verse 2

Sweep the first bit with the ^ over it. Go right from the last note of this into the Guitar 4 Second Chorus. 
I split the parts here because I believe on the record they are different guitars being overdubbed.

   ^
|--12~----------------------15--14----------------------------------|
|--12~--------12--10--------12--12--------12--10--------------------|
|--12~--------12--------------------------12----------9--7--9p7-----|
|-------------------------------------------------------------------|
|-------------------------------------------------------------------|
|-------------------------------------------------------------------|

Guitar 4 - Chorus

Play this on both Chorus 2 and 3.

|-------------------------------------|
|------12-10------------10-8----------|
|----9-------9---9----9------9---9----|
|--9-----------9----9----------9------|
|-------------------------------------|
|-------------------------------------|

|-------------------------------------|
|------12-10------------5-------5-----|
|----9-------9---9----7---7---7---7---|
|--9-----------9----7-------7---------|
|-------------------------------------|
|-------------------------------------|

|-------------------------------------|
|------12-10------------10-8----------|
|----9-------9---9----9------9---9----|
|--9-----------9----9----------9------|
|-------------------------------------|
|-------------------------------------|

|-------------------------------------|
|------12-10------------8--7----------|
|----9-------9---9----9------9\7-7----|
|--9-----------9----9-----------------|
|-------------------------------------|
|-------------------------------------|

Guitar 1 - Bridge Part A
   Gmaj     Am      Cmaj    Em
|--------------------------------------|
|-----------------1--------------------|
|---------------2-------0---------0----|
|------0------2-------2---2-----2------|
|----2---2--0-------3---------2--------|
|--3------------------------0----------|

   Gmaj      Am        Cmaj    Em
|--------------------------------------|
|-----------------1--------------------|
|---------------2-------0--------------|
|------0------2-------2---2-----2------|
|----2---2--0-------3---------2---2----|
|--3------------------------0----------|

Guitar 1 - Bridge Part B

Not sure of the picking/strumming pattern here, so just do what sounds right.

Gmaj   Am   Em   Em

Aadd9 Cmaj   Em   Gmaj

Am   Cmaj7   

There is a distorted guitar that is hitting the root nots of these chords and feedbacking 
(especially towards the end of this section) a bit throughout this second part of the bridge.

Guitar 4 - Bridge Part B

|--------------------------------|
|--------------------------------|
|--7-77-7-77-7-7-7-77-7-77-7-7---|
|--7-99-7-99-7-9-7-99-7-99-7-9---|
|--------------------------------|
|--------------------------------|

|-----------------------------------|
|-----------------------------------|
|--7-----7-----7---7-----7-----7----|
|--9-9-9-9-9-9-9-9-9-9-9-9-9-9-9-9--|
|----1010--1010--10--1010--1010-10--|
|-----------------------------------|

|---------------------------------------|
|---------------------------------------|
|--7-77-7-77-7-7-12-1212-12-1212-12-12--|
|--7-99-7-99-7-9-12-1414-12-1414-12-14--|
|---------------------------------------|
|---------------------------------------|

|-----------------------------------|
|-----------------------------------|
|--7-----7-----7---7-----7-----7----|
|--9-9-9-9-9-9-9-9-9-9-9-9-9-9-9-9--|
|----1010--1010--10--1010--1010-10--|
|-----------------------------------|
                                 
|-----------------------7~-----|
|----------------------8~------|
|--7--77--7--77--7----9~-------| Guitar~~
|--7--99--7--99--7--10~--------| Feedback ~~
|------------------------------|
|------------------------------|

Guitar 3 - Verse 3

Along with some guitar feedback

                     ^
|--15--14------------12~-------------------------------|
|--12--12------12----12~--------12--10-----------------|
|--12----------------12~--------12---------9--7/9--9---|
|------------------------------------------------------|
|------------------------------------------------------|
|------------------------------------------------------|

                           ^
|------15-----14-----10----12~------7--------0------------|
|----12-----12-----12------12~----5---5\3--3---3--3/5--5--|
|--12-----12-----12--------12~----------------------------|
|---------------------------------------------------------|
|---------------------------------------------------------|
|---------------------------------------------------------|

Guitar 3 - Chorus 3

Play this 3 times.

|------------------------|
|--3h55555555555555555---|
|------------------------|
|------------------------|
|------------------------|
|------------------------|

Ply this the 4th time.

|------------------3p0--3p0--3b--|
|--3h5555555555555---------------|
|--------------------------------|
|--------------------------------|
|--------------------------------|
|--------------------------------|

Play 4 times and gradually get louder the last 2 times.

|-----------------------|
|--3h55555555555555555--|
|-----------------------|
|-----------------------|
|-----------------------|
|-----------------------|

Guitar 1 Outro

Once again, not entirely sure of the picking/strumming pattern here but these are the chords.

E5  G5  E5  G5  

E5  G5  E5 G5

End on Em

Guitar 3 - Outro Solo

|--3b---------------------------|
|-----3p0--3p0--3p0---0---------|
|-------------------2-----------|
|-----------------------2-------|
|-------------------------------|
|-------------------------------|

|--3b---------------------------|
|-----3p0--3p0--3p0--0----------|
|----------------------2--------|
|-------------------------------|
|-------------------------------|
|-------------------------------|

|--3b---------------------------|
|-----3p0--3p0--3p0---0---------|
|-------------------2-----------|
|-----------------------2-------|
|-------------------------------|
|-------------------------------|

|--3b---------------3p0--5p0--3b~~r~--|
|-----3p0--3p0--3/5-------------------|
|-------------------------------------|
|-------------------------------------|
|-------------------------------------|
|-------------------------------------|

            
Submit corrections


        Bed lessons Hard to play? Try these video lessons and learn fast Bed lessons
        
↑ Back to top | Tablatures and chords for acoustic guitar and electric guitar, ukulele, drums are parodies/interpretations of the original songs. You may use it for private study, scholarship, research or language learning purposes only