» » »

Brand New - Aloc-acoc Tabs

Artists:  A B C D E F G H I J K L M N O P Q R S T U V W X Y Z # 

Aloc-acoc Tabs

(ver. 1) Click to play this song!
Brand New
 Rating:
4/5 (11 votes)

 Aloc-acoc lessons Tabs too difficult? Try these video lessons and learn fast
 
                -------------------------------------------------------------------------------
                          aloC-acoC -- Brand New
                     off TDAGARIM - Sowing Season Single
-------------------------------------------------------------------------------
Tuning: standard

Ok, you can only get this song if you pre-ordered the new CD in the states. The CD came 
the Sowing Season [Yeah] single cd and this song was also on it. It's similar to 
03 of the leaked demos but with different words and better quality.

Intro/Verse:
E|----------------------------------|
B|----------------------------------|
G|----------------------------------|
D|-10--9--x--x--------7-------------|
A|-10-10-10-10-----8--8-8-7--5-5----|
E|-8---8--0--0-----5--5-5-5--3-3----|

Pre-Chorus/Chorus (figure out strumming pattern these are chords)
E|------------|
B|------------|
G|------------|
D|-3--7--5----|
A|-3--7--5----|
E|-1--5--3----|

Pretty straight forward and easy.
            
Submit corrections


        Aloc-acoc lessons Hard to play? Try these video lessons and learn fast Aloc-acoc lessons
        
↑ Back to top | Tablatures and chords for acoustic guitar and electric guitar, ukulele, drums are parodies/interpretations of the original songs. You may use it for private study, scholarship, research or language learning purposes only