Home » B » Box Car Racer »

Box Car Racer - Tiny Voice Tabs

Artists:  A B C D E F G H I J K L M N O P Q R S T U V W X Y Z # 

Tiny Voice Tabs

(ver. 3) Click to play this song!
Box Car Racer
"(4)
Intro (slightly distorted) x4 

 P.M ---------                       
E|-----------------|----------------|
B|-------------9-9-|----------------|
G|-------------x-x-|-0-7-7-7-7-6-6--|
D|-7-----------6-6-|-0-7-7-7-7-6-6--|
A|-7---------------|-0-5-5-5-5-4-4--|
E|-5-5-5-5-5-5-----|----------------|

Verse x4 

E|-----------------|---------------|-----------------|--------------
B|-----------------|---------------|-----------------|--------------
G|-----------------|---------------|-----------------|--------------
D|-7-7-7-7-7-7-7-7-|-7-7-7-7-7---7-|-7-7-7-7-7-7-7-7-|-7-7-7-7-7—--7
A|-x-x-x-x-x-x-x-x-|-x-x-x-x-x---x-|-x-x-x-x-x-x-x-x-|-x-x-x-x-x---x
E|-5-5-5-5-5-5-5-5-|-5-5-5-5-5---5-|-5-5-5-5-5-5-5-5-|-5-5-5-5-5---5

Chorus x2      

E|-----------------|-------------|-----------------|----------------    
B|-----------------|-------------|-----------------|----------------    
G|-4-4-4-4-4-4-8-8-|--4-4-4-4—4--|-----------------|----------------
D|-x-x-x-x-x-x-x-x-|--x-x-x-x-x--|-----------------|----------------
A|-2-2—2-2-2-2-6-6-|--2-2-2-2-2--|-7-7-7-7-7-7-7-7-|-7-7-7-7-7-7-7-0
E|-0-0-0-0-0-0-----|--0-0-0-0-0--|-4-4-4-4-4-4-4-4-|-5-5-5-5-5-5-5-0

Chorus x1

E|-----------------|--------------|----------------|----------------
B|-----------------|--------------|----------------|----------------
G|-----------------|--------------|----------------|----------------
D|-x-x-x-x-x-x-x-x-|-x-x-x-x-x-x-x|-x-x-x-x-x-x-x-x|-x-x-x-x-x-x-x-x
A|-x-x-x-x-x-x-x-x-|-x-x-x-x-x-x-x|-x-x-x-x-x-x-x-x|-x-x-x-x-x-x-x-x
E|-x-x-x-x-x-x-x-x-|-x-x-x-x-x-x-x|-x-x-x-x-x-x-x-x|-x-x-x-x-x-x-x-x

Interlude x2

E|----------------------|----------------------
B|----------------------|----------------------
G|----------------------|---------------------- 
D|-------2-------2------|-------4-------4------
A|----2-------2-------2-|----2-------2-------2-
E|-0-------0-------0----|-0-------0-------0----

 x2

E|----------------------|----------------------
B|----------------------|----------------------
G|----------------------|----------------------
D|-------2-------2------|-------4-------4------
A|----0-------0-------0-|----0-------0-------0-
E|-0-------0-------0----|-0-------0-------0----
"            
Submit corrections

↑ Back to top | Tablatures and chords for acoustic guitar and electric guitar, ukulele, drums are parodies/interpretations of the original songs. You may use it for private study, scholarship, research or language learning purposes only