Home » B » Box Car Racer »

Box Car Racer - Tiny Voice Tabs

Artists:  A B C D E F G H I J K L M N O P Q R S T U V W X Y Z # 

Tiny Voice Tabs

(ver. 2) Click to play this song!
Box Car Racer
PROPS GO TO: BCRFAN

INTRO

e-------------------------------------
B---------------9-9-------------------
G---------------X-X-----7-7-7-7\6-6---
D--7------------6-6--0--7-7-7-7\6-6---
A--7-----------------0--5-5-5-5\4-4---
E--5--5-5-5-5-5-----------------------
     [    PM   ]

END PART OF INTRO

e-------------------
B-------------------
G-----7-7-7-7\6-6---
D--0--7-7-7-7\6-6---
A--0--5-5-5-5\4-4---
E-------------------  

VERSE

e-------------------------------------------------------------------
B-------------------------------------------------------------------
G-------------------------------------------------------------------
D--7--7-7-7--7-7-7-7--7-7-7-7-7--7--7-7-7-7-7-7-7-7--7-7-7-7-7--7---
A--X--X-X-X--X-X-X-X--X-X-X-X-X--X--X-X-X-X-X-X-X-X--X-X-X-X-X--X---
E--5--5-5-5--5-5-5-5--5-5-5-5-5--5--5-5-5-5-5-5-5-5--5-5-5-5-5--5---

CHORUS

e--------------------------------------------------------------------
B--------------------------------------------------------------------
G--4-4-4-4-4-4--8-8--4-4-4-4--4--------------------------------------
D--X-X-X-X-X-X--8-8--X-X-X-X--X--------------------------------------
A--2-2-2-2-2-2--6-6--2-2-2-2--2--7-7-7-7-7-7-7-7--7-7-7-7-7-7-7------
E--0-0-0-0-0-0-------0-0-0-0--0--4-4-4-4-4-4-4-4--5-5-5-5-5-5-5--0---

e----
B----
G----
D--X-
A--X-REPEAT
E--X-

INTERLUDE

e---------------------------
B---------------------------
G---------------------------
D----2---2--------4---4-----
A---2---2---2----2---2---2--REPEAT X2
E--0---0---0----0---0---0---

e----------------------------
B----------------------------
G----------------------------
D----2---2--------4---4------REPEAT X2
A---0---0---0----0---0---0---
E--0---0---0----0---0---0----

USE YOUR VOICES......

e------------------------
B------------------------
G------------------------
D--------6-----7-----7---
A--------X-----X-----X---
E--0-----4-----5-----5---
            
Submit corrections

↑ Back to top | Tablatures and chords for acoustic guitar and electric guitar, ukulele, drums are parodies/interpretations of the original songs. You may use it for private study, scholarship, research or language learning purposes only