Home » B » Box Car Racer »

Box Car Racer - Tiny Voice Tabs

Artists:  A B C D E F G H I J K L M N O P Q R S T U V W X Y Z # 

Tiny Voice Tabs

(ver. 1) Click to play this song!
Box Car Racer
let ring:~~~~~
Palm mute:PM .....
mute/harmonics:xxxxx
slide:#/#
INTRO w/ light distortion
e|---------------------------------|
B|---------------------------------|
G|------------13-13----------------|x4
D|-7~7-7-7-7---X--X----7-7-7-7\6-6-|
A|-7~7-7-7-7--11-11--0-5-5-5-5\4-4-|
E|-5~5-5-5-5-----------------------|
PM   . . . .

VERSE w/ light distortion
Play tis through the verse
e|-----|
B|-----|
G|-----|
D|--7--|
A|--x--|
E|--5--|


CHORUS w/ heavy distortion
e|---------------------------------------------|
B|---------------------------------------------|
G|---------888---------------------------------|x2
D|-2-2-2-2-xxx--2-2-2-2-2-2-2-6666666677777777-|
A|-2-2-2-2-666--2-2-2-2-2-2-2-6666666677777777-|
E|-0-0-0-0------0-0-0-0-0-0-0-4444444455555555-|

INTERLUDE w/ heavy distortion
"everybody will be left out!"
e|-xxxxxxxxxxxxxxxx-|
B|-xxxxxxxxxxxxxxxx-|
G|-xxxxxxxxxxxxxxxx-|x1
D|-xxxxxxxxxxxxxxxx-|
A|-xxxxxxxxxxxxxxxx-|
E|-xxxxxxxxxxxxxxxx-|

INTRO 2 w/ light distortion
e|---------------------------------|
B|---------------------------------|
G|------------13-13----------------|x2
D|-7~7-7-7-7---X--X----7-7-7-7\6-6-|
A|-7~7-7-7-7--11-11--0-5-5-5-5\4-4-|
E|-5~5-5-5-5-----------------------|
PM   . . . .

VERSE 2 w/ light distortion
Play tis through the verse
e|-----|
B|-----|
G|-----|
D|--7--|
A|--x--|
E|--5--|

CHORUS w/ heavy distortion
e|---------------------------------------------|
B|---------------------------------------------|
G|---------888---------------------------------|x2
D|-2-2-2-2-xxx--2-2-2-2-2-2-2-6666666677777777-|
A|-2-2-2-2-666--2-2-2-2-2-2-2-6666666677777777-|
E|-0-0-0-0------0-0-0-0-0-0-0-4444444455555555-|

INTERLUDE w/ heavy distortion
"everybody will be left out!"
e|-xxxxxxxxxxxxxxxx-|
B|-xxxxxxxxxxxxxxxx-|
G|-xxxxxxxxxxxxxxxx-|x1
D|-xxxxxxxxxxxxxxxx-|
A|-xxxxxxxxxxxxxxxx-|
E|-xxxxxxxxxxxxxxxx-|

(gets quiet)
BRIDGE w/ clean
e|------------------|
B|------------------|
G|------------------|x8
D|---2--2----4--4---|
A|--2--2--2-2--2--2-|
E|-0--0--0-0--0--0--|

e|---------------------------------------|
B|---------------------------------------|
G|---------------------------------------|x2
D|---------------------------------------|
A|--------------------0~~~~~~~~0~~~~~~~~-|
E|-0~~~~~~~~4~~~~~~~~~-------------------|

e|------------------|
B|------------------|
G|------------------|x8
D|---2--2----4--4---|
A|--2--2--2-2--2--2-|
E|-0--0--0-0--0--0--|

CHORUS w/ heavy distortion
e|---------------------------------------------|
B|---------------------------------------------|
G|---------888---------------------------------|x4
D|-2-2-2-2-xxx--2-2-2-2-2-2-2-6666666677777777-|
A|-2-2-2-2-666--2-2-2-2-2-2-2-6666666677777777-|
E|-0-0-0-0------0-0-0-0-0-0-0-4444444455555555-|

INTERLUDE w/ heavy distortion
"everybody will be left out!"
e|-xxxxxxxxxxxxxxxx-|
B|-xxxxxxxxxxxxxxxx-|
G|-xxxxxxxxxxxxxxxx-|x2
D|-xxxxxxxxxxxxxxxx-|
A|-xxxxxxxxxxxxxxxx-|
E|-xxxxxxxxxxxxxxxx-|
            
Submit corrections

↑ Back to top | Tablatures and chords for acoustic guitar and electric guitar, ukulele, drums are parodies/interpretations of the original songs. You may use it for private study, scholarship, research or language learning purposes only