Home » B » Box Car Racer »

Box Car Racer - Instrumental Tabs

Artists:  A B C D E F G H I J K L M N O P Q R S T U V W X Y Z # 

Instrumental Tabs

(ver. 3) Click to play this song!
Box Car Racer
Boxcar Racer
"Instrumental"
This is how Tom played it in October.

Verse (Palm Muted)
e:---------------------------------------------------------------
B:---------------------------------------------------------------
G:---------------------------------------------------------------
D:---------------------------------------------------------------
A:--5--4-----------------------------------------------------------
E:---4---5---------------------------------------------------------

Chorus
e:---------------------------------------------------------------
B:---------------------------------------------------------------
G:----8---9--------------------------------------------------------
D:----8---9---7---7----------------------------------------------
A:--7-6-7-7-7-6-7-7-----------------------------------------------
E:--0---0---0-4-0-5-----------------------------------------------
            
Submit corrections

↑ Back to top | Tablatures and chords for acoustic guitar and electric guitar, ukulele, drums are parodies/interpretations of the original songs. You may use it for private study, scholarship, research or language learning purposes only