Home » B » Box Car Racer »

Box Car Racer - Instrumental Tabs

Artists:  A B C D E F G H I J K L M N O P Q R S T U V W X Y Z # 

Instrumental Tabs

(ver. 1) Click to play this song!
Box Car Racer
e-5-5-5-5-5----------------------------------------
B-x-x-x-x-x----------------------------------------
G-2-2-2-2-2----------------------------------------
D--------------------------------------------------
A--------------------------------------------------
E--------------------------------------------------

e-------------------------------------------------
B--------------------------------------------------
G--------------------------------------------------
D--------------------------------------------------
A-4-4------4-4------4-4------4-4-------------------
E-----55555----4444-----22222----0000--------------
p.m.................................

e--------4-5-4---5-4------5-4----------------------
B--2-3-5-------5-----5-3-------5-3-2---------------
G-2---------------------------------2--------------
D--------------------------------------------------
A--------------------------------------------------
E--------------------------------------------------

e--------------------------------------------------
B--------------------------------------------------
G-------88888-------99999--------------------------
D-22222-xxxxx-22222-xxxxx-22222-6666-22222-7777----
A-22222-66666-22222-77777-22222-6666-22222-7777----
E-00000-------00000-------00000-4444-00000-5555----
            
Submit corrections

↑ Back to top | Tablatures and chords for acoustic guitar and electric guitar, ukulele, drums are parodies/interpretations of the original songs. You may use it for private study, scholarship, research or language learning purposes only