Home » B » Box Car Racer »

Box Car Racer - Instrumental Tabs

Artists:  A B C D E F G H I J K L M N O P Q R S T U V W X Y Z # 

Instrumental Tabs

(ver. 2) Click to play this song!
Box Car Racer
Intro- lasts very short
-5--5--5--5----
-x--x--x--x----
-2--2--2--2----
---------------
---------------
---------------

Riff 1
-6-6-------------6-6-------------6-6-------------6-6--------------
-6-6-7-7-7-7-7-7-6-6-------------6-6-4-4-4-4-4-4-6-6--------------
-4-4-7-7-7-7-7-7-4-4-7-7-7-7-7-7-4-4-4-4-4-4-4-4-4-4-7-7-7-7-7-7--
-----5-5-5-5-5-5-----4-4-4-4-4-4-----2-2-2-2-2-2-----4-4-4-4-4-4--

Riff 2
-9-9-9-9-8-8-8-8-9-9-9-9---------9-9-9-9---------9-9-9-9----------
-9-9-9-9-9-9-9-9-9-9-9-9-9-9-9-9-9-9-9-9-6-6-6-6-9-9-9-9-7-7-7-7--
-7-7-7-7-6-6-6-6-7-7-7-7-9-9-9-9-7-7-7-7-7-7-7-7-7-7-7-7-7-7-7-7--
            
Submit corrections

↑ Back to top | Tablatures and chords for acoustic guitar and electric guitar, ukulele, drums are parodies/interpretations of the original songs. You may use it for private study, scholarship, research or language learning purposes only