Home » B » Box Car Racer »

Box Car Racer - 01 I Feel So Bass

Artists:  A B C D E F G H I J K L M N O P Q R S T U V W X Y Z # 

01 I Feel So Bass

(ver. 3) Click to play this song!
Box Car Racer
note : '>' means 8 times

Intro
Soft part : play it 2 times
G-------------------|X4|-------------------|X4|
D-------------------|X4|-------------------|X4|
A--------------5555-|X4|--------------2222-|X4|
E-0-33--0-33--3-----|X4|-0-33--0-33--3-----|X4|

Loud part
G-------------------|X3|---------------------
D-------------------|X3|---------------------
A--------------5555-|X3|----------------2~---
E-0-33--0-33--3-----|X3|-0-33--0-33--3-3-----

G-------------------|X3|---------------------
D-------------------|X3|---------------------
A--------------5555-|X3|----------------2222-
E-0-33--0-33--3-----|X3|-0-33--0-33--3-3-----

Verses
G------------------------|X2
D------------------------|X2
A------------------------|X2
E--3-3---2-2---0-0---2-2-|X2

Chorus
G----------
D----------
A-7>6>4>6>-
E----------

Instrumental part before the 2nd verse
G-------------------|X3|---------------------
D-------------------|X3|---------------------
A--------------5555-|X3|----------------2222-
E-0-33--0-33--3-----|X3|-0-33--0-33--3-3-----

Bridge (play it 2 times)
G-------------------|X4|-------------------|X4|
D-------------------|X4|-------------------|X4|
A--------------5555-|X4|--------------2222-|X4|
E-0-33--0-33--3-----|X4|-0-33--0-33--3-----|X4|

No Bass in the last part of the bridge

End
G---
D---
A---
E-0-
            
Submit corrections

↑ Back to top | Tablatures and chords for acoustic guitar and electric guitar, ukulele, drums are parodies/interpretations of the original songs. You may use it for private study, scholarship, research or language learning purposes only