Home » B » Box Car Racer »

Box Car Racer - 01 I Feel So Tabs

Artists:  A B C D E F G H I J K L M N O P Q R S T U V W X Y Z # 

01 I Feel So Tabs

(ver. 3) Click to play this song!
Box Car Racer
"(1)
Acoustic Intro:

E|-------------|-------------
B|-------------|-------------
G|-0—-4-----5--|-0—-4-----2--
D|-5--5-4—--4--|-2—-2-4---4--
A|-------------|-------------
E|-------------|-------------

Second Part (lots of string bending)

E|-------------|-------------
B|-------------|-------------
G|-------------|-------------
D|-------------|-------------
A|-------------|-------------
E|-3^----------|-------------

Third Part x2

E|---------------------------|---------------------------
B|---------------------------|---------------------------
G|---------------------7-7-7-|---------------------7-7-7-
D|---5-5---5---5---5---x-x-x-|---5-5---5---5---5---x-x-x-
A|---5-5---5---5---5---5-5-5-|---5-5---5---5---5---5-5-5-
E|-0-3—3---3-0-3---3-0-------|-0-3—3---3-0-3---3-0-------


E|---------------------------|---------------------------
B|---------------------------|---------------------------
G|---------------------7-7-7-|----------------------4----
D|---5-5---5---5---5---x-x-x-|---5-5---5---5---5----x----
A|---5-5---5---5---5---5-5-5-|---5-5---5---5---5----2----
E|-0-3—3---3-0-3---3-0-------|-0-3—3---3-0-3---3-0-------


Verse:

E|-------------|-------------|-------------|-------------
B|-------------|-------------|-------------|-------------
G|-0—-4-----5--|-0—-4-----2--|-0—-4-----5--|-0—-4-----2--
D|-5--5-4—--4--|-2—-2-4---4--|-5--5-4—--4--|-2—-2-4---4--
A|-------------|-------------|-------------|-------------
E|-------------|-------------|-------------|-------------


P.M --------    ---------     ---------     ----------
E|-------------|-------------|-------------|-------------
B|-------------|-------------|-------------|-------------
G|-------------|-------------|-------------|-------------
D|-------------|-------------|-------------|-------------
A|-------------|-------------|-------------|-------------
E|-3-3—-2-2----|-0-0—-2-2----|-3-3—-2-2----|-0-0—-2-2----

Chorus:x2

E|-------------------------|-------------------------
B|-------------------------|-------------------------
G|-------------------------|-------------------------
D|-2-2-2-2-2-2-2-2-2-2-2-2-|-9-9-9-9-9-9-9-9-9-9-9-9-
A|-2-2-2-2-2-2-2-2-2-2-2-2-|-6-6-6-6-6-6-6-6-6-6-6-6-
E|-0-0-0-0-0-0-0-0-0-0-0-0-|-------------------------


E|-------------------------|-------------------------
B|-------------------------|-------------------------
G|-------------------------|-------------------------
D|-6-6-6-6-6-6-6-6-6-6-6-6-|-9-9-9-9-9-9-9-9-9-9-9-9-
A|-4-4-4-4-4-4-4-4-4-4-4-4-|-6-6-6-6-6-6-6-6-6-6-6-6-
E|-------------------------|-------------------------


Interlude 

(more string bending) x4

                P.M   ---------
E|-------------|-------------
B|-------------|-------------
G|-------------|-------------
D|-------------|-----7-7-7-7-
A|-------------|-----5-5-5-5-
E|-3^----------|-------------

This part x2

P.M ----------------        ------------------
E|-------------------------|-------------------------
B|-------------------------|-------------------------
G|-------------------7-7-7-|-------------------7-7-7-
D|---5-5--5---5--5---x-x-x-|---5-5--5---5--5---x-x-x-
A|---5-5--5---5--5---5-5-5-|---5-5--5---5--5---5-5-5-
E|-0-3-3—-3-0-3--3-0-------|-0-3-3—-3-0-3--3-0-------

This part x2

E|-------------------------|-------------------------
B|-------------------------|-------------------------
G|-4-4-4—-4-4-4-4—-4-4-4-4-|-4—-4-4—-4-4—-4-4-4-4----
D|-x-x-x—-x-x-x-x—-x-x-x-x-|-x—-x-x—-x-x—-x-x-x-x----
A|-2-2-2—-2-2-2-2—-2-2-2-2-|-2—-2-2—-2-2—-2-2-2-2----
E|-------------------------|-------------------------

Then this part once

E|-------------------------|-------------------------
B|-------------------------|-------------------------
G|-4-4-4—-4-4-4-4—-4-4-4-4-|-4—-4-4—-4-4—-4-4-4-4----
D|-x-x-x—-x-x-x-x—-x-x-x-x-|-x—-x-x—-x-x—-x-x-x-x----
A|-2-2-2—-2-2-2-2—-2-2-2-2-|-2—-2-2—-2-2—-2-2-2-2----
E|-------------------------|-------------------------
E|------------------------|-------------------------
B|------------------------|-------------------------
G|-4-4-4—-4-4-4-4-4-4-4-4-|-4-----------------------
D|-x-x-x—-x-x-x-x-x-x-x-x-|-x-----------------------
A|-2-2-2—-2-2-2-2—2-2-2-2-|-2-----------------------
E|------------------------|-------------------------
"            
Submit corrections

↑ Back to top | Tablatures and chords for acoustic guitar and electric guitar, ukulele, drums are parodies/interpretations of the original songs. You may use it for private study, scholarship, research or language learning purposes only