Home » B » Box Car Racer »

Box Car Racer - 01 I Feel So Bass

Artists:  A B C D E F G H I J K L M N O P Q R S T U V W X Y Z # 

01 I Feel So Bass

(ver. 1) Click to play this song!
Box Car Racer
This is my favorite song by box car………………….

Intro

G]--------------------------------------------------------------------
D]--------------------------------------------------------------------
A]-------------55------------55---------55------------22--------------
E]----33333333-----33333333-----3333333----33333333------------------

Verse

G]--------------------------------------------------------------------
D]-------------------------------------------------------------------
A]-------------------------------------------------------------------
E]------33-22-00-22-----------------------------------------------(x2)

Chorus

G]-------------------------------------------------------------------
D]------------------------------------------------------------------
A]----7777777-6666666---444444-6666666----------------
E]------------------------------------------------------------------ (x2)


G]--------------------------------------------------------------------
D]--------------------------------------------------------------------
A]-----------------55--------------55------------55------------22-
E]--33333333------------33333333----------3333333---33333333--


Verse

G]--------------------------------------------------------------------
D]-------------------------------------------------------------------
A]-------------------------------------------------------------------
E]------33-22-00-22-----------------------------------------------(x2)

Chorus

G]-------------------------------------------------------------------
D]------------------------------------------------------------------
A]----7777777-6666666---444444-6666666----------------
E]------------------------------------------------------------------ (x2)


Bridge

G]--------------------------------------------------------------------
D]--------------------------------------------------------------------
A]------------55------------55--------55-----------55
E]--33333333-----33333333-----3333333----33333333------ (x2)

Chorus

G]-------------------------------------------------------------------
D]------------------------------------------------------------------
A]----7777777-6666666---444444-6666666----------------
E]------------------------------------------------------------------(x4)


And that’s about all for this song…………………….
            
Submit corrections

↑ Back to top | Tablatures and chords for acoustic guitar and electric guitar, ukulele, drums are parodies/interpretations of the original songs. You may use it for private study, scholarship, research or language learning purposes only