Home » B » Box Car Racer »

Box Car Racer - Feel So Tabs

Artists:  A B C D E F G H I J K L M N O P Q R S T U V W X Y Z # 

Feel So Tabs

(ver. 3) Click to play this song!
Box Car Racer
Boxcar Racer
"I Feel So"
Boxcar Racer

Normal Tuning

This is a colmanation of all the tabs and corrections i've seen.The Main
Riff is not 0h3 cause i've tried it and it sounds like ***. This is a 100% Right


-Play 8 times
-Play alotta times
)-Ring hard
(-)-Palm muted
 
Intro
E|-------------------------------------------------|
B|-------------------------------------------------|
G|-------------------------------------------------|
D|-4-5-4-2-----------------------------------------|
A|55442244-----------------------------------------|
E|-------------------------------------------------|

Part After Intro
e|-------------------------------------------------|
B|-------------------------------------------------|
G|-------------------------------------------------|
D|-------------------------------------------------|
A|-------------------------------------------------|
E|-3b----------------------------------------------|
cont.
E|-------------------------------------------------|
B|8------------------------------------------------|
G|x>>----------------------------------------------|
D|5------------------------------------------------|
A|-------------------------------------------------|
E|---3b--------------------------------------------|

Main Riff
E|-------------------------------------------------|
B|-------------------------------------------------|
G|------------7-----------4------------------------|
D|4/555-4/555-x)-x3-4/555-x------------------------|
A|4/555-4/555-5-----4/555-2------------------------|
E|2/333-2/333-------2/333--------------------------|

Verse Pt. 1
E|-------------------------------------------------|
B|-------------------------------------------------|
G|-------------------------------------------------|
D|-4-5-4-2-----------------------------------------|
A|55442244-----------------------------------------|
E|-------------------------------------------------|

Verse Pt. 2
E|-------------------------------------------------|
B|-------------------------------------------------|
G|-------------------------------------------------|
D|55-44-22-44--------------------------------------|
A|55-44-22-44--------------------------------------|
E|33-22-00-22--------------------------------------|

Chorus
E|-------------------------------------------------|
B|-------------------------------------------------|
G|-9--9--6--8--------------------------------------|
D|-9>-9>-6>-8>-------------------------------------|
A|-7--6--4--6--------------------------------------|
E|-------------------------------------------------|

Bridge Pt.1
e|-------------------------------------------------|
B|-------------------------------------------------|
G|-------------------------------------------------|
D|-------------------------------------------------|
A|-------------------------------------------------|
E|-3b----------------------------------------------|

Bridge Pt.2
E|-------------------------------------------------|
B|-------------------------------------------------|
G|------------7------------------------------------|
D|4/555-4/555-x)-x4--------------------------------|
A|4/555-4/555-5------------------------------------|
E|2/333-2/333--------------------------------------|
 (-----------)

Bridge Pt.3
This is the only chord he plays for Pt. 3 you just have 
to get the Rhythem down
e|-------------------------------------------------|
B|-------------------------------------------------|
G|-4-----------------------------------------------|
D|-x-----------------------------------------------|
A|-2-----------------------------------------------|
E|-------------------------------------------------|

That's it! The order is all you have to know.
            
Submit corrections

↑ Back to top | Tablatures and chords for acoustic guitar and electric guitar, ukulele, drums are parodies/interpretations of the original songs. You may use it for private study, scholarship, research or language learning purposes only