Home » B » Box Car Racer »

Box Car Racer - Feel So Tabs

Artists:  A B C D E F G H I J K L M N O P Q R S T U V W X Y Z # 

Feel So Tabs

(ver. 2) Click to play this song!
Box Car Racer
Artist-Box Car Racer
Song Title- I Feel So

Intro (not the piano)
E--------------------------------
B--------------------------------
G---4---5---4---2---4---5---4---2
D-5-5-4-4-2-2-4-4-5-5-4-4-2-2-4-4
A--------------------------------
E--------------------------------
 
Part 2 (BEND THE E STRING AND MAKE IT LAST, STRUM IT 2 OR 3 TIMES TO GET THE NOTE BACK)
E--------------------------------------
B--------------------------------------
G--------------------------------------
D--------------------------------------
A--------------------------------------
E-3--------------3--------------------3

PART 3
E---------------------------------------------------
B---------------------------------------------------
G-12-12-12-12-12-12-12-12-12-12-12-12-12------------
D---------------------------------------------------
A-10-10-10-10-10-10-10-10-10-10-10-10-10------------
E----------------------------------------3/------3/-

pART 4
E-----------------------------------------------------------------R
B-2--2------------2--2------------2--2------------2--2------------E
G-2--2--7-7-7-7-7-2--2--7-7-7-7-7-2--2--7-7-7-7-7-2--2--4---------P
D-2--2------------2--2------------2--2------------2--2------------E
A-------5-5-5-5-5-------5-5-5-5-5-------5-5-5-5-5-------2---------A    
E--3--3------------3--3------------3--3------------3--3-----------T

verse 1 starts singing 
E------------------------------------------------------------------
B------------------------------------------------------------------
G---4---5---4---2---4---5---4---2---4---5---4---2---4---5---4---2--
D-5-5-4-4-2-2-4-4-5-5-4-4-2-2-4-4-5-5-4-4-2-2-4-4-5-5-4-4-2-2-4-4--
A------------------------------------------------------------------
E------------------------------------------------------------------

CHORUS
E------------------------------------------------------------------------------------------------
B------------------------------------------------------------------------------------------------
G------------------------------------------------------------------------------------------------
D-7-7-7-7-7-7-7-7-7-7-7-7-6-6-6-6-6-6-7-7-7-7-7-7-7-7-7-7-7-7-7-7-7-7-7-7-6-6-6-6-6-6-7-7-7-7-7-7
A-9-9-9-9-9-9-8-8-8-8-8-8-4-4-4-4-4-4-8-8-8-8-8-8-9-9-9-9-9-9-8-8-8-8-8-8-4-4-4-4-4-4-8-8-8-8-8-8
E------------------------------------------------------------------------------------------------

pre verse
E-----------------------------------------------------------------
B-2--2------------2--2------------2--2------------2--2------------
G-2--2--7-7-7-7-7-2--2--7-7-7-7-7-2--2--7-7-7-7-7-2--2--4---------
D-2--2------------2--2------------2--2------------2--2------------
A-------5-5-5-5-5-------5-5-5-5-5-------5-5-5-5-5-------2---------    
E--3--3------------3--3------------3--3------------3--3-----------

verse 2
E------------------------------------------------------------------
B------------------------------------------------------------------
G---4---5---4---2---4---5---4---2---4---5---4---2---4---5---4---2--
D-5-5-4-4-2-2-4-4-5-5-4-4-2-2-4-4-5-5-4-4-2-2-4-4-5-5-4-4-2-2-4-4--
A------------------------------------------------------------------
E------------------------------------------------------------------

CHORUS
E------------------------------------------------------------------------------------------------
B------------------------------------------------------------------------------------------------
G------------------------------------------------------------------------------------------------
D-7-7-7-7-7-7-7-7-7-7-7-7-6-6-6-6-6-6-7-7-7-7-7-7-7-7-7-7-7-7-7-7-7-7-7-7-6-6-6-6-6-6-7-7-7-7-7-7
A-9-9-9-9-9-9-8-8-8-8-8-8-4-4-4-4-4-4-8-8-8-8-8-8-9-9-9-9-9-9-8-8-8-8-8-8-4-4-4-4-4-4-8-8-8-8-8-8
E------------------------------------------------------------------------------------------------

Bridge
E---------------------------------------------------
B---------------------------------------------------
G---------------------------------------------------
D---------------------------------------------------
A---------------------------------------------------
E-3----------------3--------------3----------------3

SOLO
E-----------------------------------------------------------------------------------------------------------------------------
B-----------------------------------------------------------------------------------------------------------------------------
G-4-4-4-4-4-4-4-4-4-4-4-4-4-4-4---4-4-4-4-4-4-4-4-4-4-4-4-4-4-4----4-4-4-4-4-4-4-4-4-4-4-4-4-4-4-4-4-4-4-4-4-4-4-4-4-4-4-4-4-4
D-----------------------------------------------------------------------------------------------------------------------------
A-2-2-2-2-2-2-2-2-2-2-2-2-2-2-2---2-2-2-2-2-2-2-2-2-2-2-2-2-2-2----2-2-2-2-2-2-2-2-2-2-2-2-2-2-2-2-2-2-2-2-2-2-2-2-2-2-2-2-2-2
E-----------------------------------------------------------------------------------------------------------------------------

CHORUS
E---------------------------------------------------------------------------------------------------------------------------------------------------------------------------------------------------
B---------------------------------------------------------------------------------------------------------------------------------------------------------------------------------------------------
G---------------------------------------------------------------------------------------------------------------------------------------------------------------------------------------------------
D-7-7-7-7-7-7-7-7-7-7-7-7-6-6-6-6-6-6-7-7-7-7-7-7-7-7-7-7-7-7-7-7-7-7-7-7-6-6-6-6-6-6-7-7-7-7-7-7-7-7-7-7-7-7-7-7-7-7-7-7-6-6-6-6-6-6-7-7-7-7-7-7-7-7-7-7-7-7-7-7-7-7-7-7-6-6-6-6-6-6-7-7-7-7-7-7--7
A-9-9-9-9-9-9-8-8-8-8-8-8-4-4-4-4-4-4-8-8-8-8-8-8-9-9-9-9-9-9-8-8-8-8-8-8-4-4-4-4-4-4-8-8-8-8-8-8-9-9-9-9-9-9-8-8-8-8-8-8-4-4-4-4-4-4-8-8-8-8-8-8-9-9-9-9-9-9-8-8-8-8-8-8-4-4-4-4-4-4-8-8-8-8-8-8--9
E---------------------------------------------------------------------------------------------------------------------------------------------------------------------------------------------------
            
Submit corrections

↑ Back to top | Tablatures and chords for acoustic guitar and electric guitar, ukulele, drums are parodies/interpretations of the original songs. You may use it for private study, scholarship, research or language learning purposes only