Home » B » Box Car Racer »

Box Car Racer - Feel So Tabs

Artists:  A B C D E F G H I J K L M N O P Q R S T U V W X Y Z # 

Feel So Tabs

(ver. 1) Click to play this song!
Box Car Racer
Tuning: DADGBe

~= vibrato
b= bend

Intro: part one
e|--------------------------------------|
B|--------------------------------------|
G|--------------------------------------|
D|--------------------------------------|
A|--------------------------------------|
D|------5~------------------------------|
                             
Intro: part two
e|---------------------|-----|
B|-8-------------------|-----|
G|-x-------------------|-----|
D|-5-LOTS OF STRUMMING-|-----|
A|---------------------|-----|
D|---------------------|-5~b-|
   
Intro: part three 
e|--------------------|------------------|
B|--------------------|------------------|
G|-------------777----|--------------444-|
D|-7-555-7-55--xxx----|-7-555-7-55---xxx-|
A|-7-555-7-55--555-x3-|-7-555-7-55---222-|
D|-7-555-7-55---------|-7-555-7-55-------|
   
Verse
e|---------------------|------------------|
B|---------------------|------------------|
G|-44---5---4---2------|------------------|
D|-55-4---2---4-4--x2--|------------------|
A|---------------------|------------------|
D|---------------------|--55--44--22--44--|
                       pm xx  xx  xx  xx
Chorus
e|----------------------------------------------|
B|----------------------------------------------|
G|----------------------------------------------|
D|-2-22-222--1--1-1---6-66-666--1-11-111--------|
A|-2-22-222--3-3-3-3--4-44-444--3-33-333---x2---|
D|-2-22-222--1--------6-66-666--1-11-111--------|

Intro: part three
Verse
Chorus

e|-----------|
B|-----------|
G|-----------|
D|-----------|
A|-----------|
D|---5~------|
   

e|---------------------|-------------------|
B|---------------------|-------------------|
G|-------------777-----|--------------444--|
D|-7-555-7-55--xxx-----|-7-555-7-55---xxx--|
A|-7-555-7-55--555--x3-|-7-555-7-55---222--|
D|-7-555-7-55----------|-7-555-7-55--------|

pm x xxx x xxx           x xxx x xxx  

e|---------------------------------------------------------------------------|
B|---------------------------------------------------------------------------|
G|-4-------------------------------------------------------------------------|
D|-x-STRUM LOTS LISTEN FOR PAUSES--------------------------------------------|
A|-2-------------------------------------------------------------------------|
D|---------------------------------------------------------------------------|

end with chorus
            
Submit corrections

↑ Back to top | Tablatures and chords for acoustic guitar and electric guitar, ukulele, drums are parodies/interpretations of the original songs. You may use it for private study, scholarship, research or language learning purposes only