Home » B » Bobaflex »

Bobaflex - Home Tabs

Artists:  A B C D E F G H I J K L M N O P Q R S T U V W X Y Z # 

Home Tabs

(ver. 3) Click to play this song!
Bobaflex
Sick song by a sick band. Definitely not 100% sure so if you have any
suggestions, please do tell.


Bass line at the beginning (Play soft)
e|--------------------------------------|
B|--------------------------------------|
G|--------------------------------------|
D|--------------------------------------|
A|----5---5---5---5---5-----------------|
D|--5---5---5---5---5-------------------|

Verse
e|--------------------------------------|
B|--------------------------------------|
G|--------------------------------------|
D|--------------------------------------|
A|------8-8-8-8-3-3-3-3-5-5-5-----------|
D|-5-7-8-8-8-8-3-3-3-3-5-5-5------------|

Electric starts at 1:19
e|--------------------------------------|
B|--------------------------------------|
G|--------------------------------------|
D|--------------------------------------|
A|-8\7\5-----5--7--8--3--5--------------|
D|-8\7\5-----5--7--8--3--5--------------|

Chorus (Not quite sure)
e|------------------------------------------|
B|------------------------------------------|
G|------------------------------------------|
D|--------------7-7-------------------------|
A|--5-7-8-8-3-3-5-5-5-5-7-8-8-3-3-4/5--4/5--|
D|--5-7-8-8-3-3-0-0-5-5-7-8-8-3-3-4/5--4/5--|

x2

Solo
e|-----------------------------------------------------|
B|--12--12b(14)-----------12-14-12-14b(15)r14-12-14----|
G|14--14---------14------------------------------------|
D|-----------------14----------------------------------|
A|-----------------------------------------------------|
E|-----------------------------------------------------|

e|-----------------------------------------------14----|
B|--12--12b(14)-----------12-14-12-14b(15)r14-12-------|
G|14--14---------14------------------------------------|
D|-----------------14----------------------------------|
A|-----------------------------------------------------|
E|-----------------------------------------------------|

e|-17-19-17-19b(21)r19-17-19--------|
B|----------------------------------|
G|----------------------------------|
D|----------------------------------|
A|----------------------------------|
E|----------------------------------|

e|-----------------------------------------------------|
B|-19-21-21b(22)r21-19-17-19-19-19p17h19---------------|
G|-----------------------------------------------------|
D|-----------------------------------------------------|
A|-----------------------------------------------------|
E|-----------------------------------------------------|

e|-------------12-----16h17p16--------------|
B|-14-14-12---------------------17-19-------|
G|----------14------------------------------|
D|------------------------------------------|
A|------------------------------------------|
E|------------------------------------------|
END SOLO

Verse
e|--------------------------------------|
B|--------------------------------------|
G|--------------------------------------|
D|--------------------------------------|
A|-8\7\5-----5--7--8--3--5--------------|
D|-8\7\5-----5--7--8--3--5--------------|

Chorus (Not quite sure)
e|------------------------------------------|
B|------------------------------------------|
G|------------------------------------------|
D|--------------7-7-------------------------|
A|--5-7-8-8-3-3-5-5-5-5-7-8-8-3-3-4/5--4/5--|
D|--5-7-8-8-3-3-0-0-5-5-7-8-8-3-3-4/5--4/5--|


| /  slide up
| \  slide down
| h  hammer-on
| p  pull-off
| ~  vibrato
| +  harmonic
| x  Mute note
| b  Bend String
            
Submit corrections

↑ Back to top | Tablatures and chords for acoustic guitar and electric guitar, ukulele, drums are parodies/interpretations of the original songs. You may use it for private study, scholarship, research or language learning purposes only