Home » B » Bobaflex »

Bobaflex - Home Tabs

Artists:  A B C D E F G H I J K L M N O P Q R S T U V W X Y Z # 

Home Tabs

(ver. 2) Click to play this song!
Bobaflex
alright. this is the rythum guitar for right now but the second guitar and a more 
version are coming.


enjoy

Album:Bobaflex
Tuning:Dropped C
(C G C F A d)

|--|
|--|
|--|
|--|
|--|
|--|
======================================
intro -  bass - not exact strumming
|------------------------------|
|------------------------------|
|--------------------[--0x?]---|
|-[--7x?]--[---10x?]-[-----]---|
|-[0----]--[-------]-[-----]---|
|--------9-[10-----]-[5----]---|
=====================================

Guitar 1 - distortion
Verse
|---------------------------------------|x2
|---------------------------------------|
|---------------------------------------|
|---------------------------------------|
|------5~---8~---5-5-5-5------5-5-------|
|-10-9-5~-7-8~-2-5-5-5-5-10-9-5-5-9h10~-|

Chorus
|----------------------|x2
|----------------------|
|----------------------|
|----------------------|
|-----10-10-3-3-0-0-7--|
|-7-9-10-10-3-3-0-0-7--|

Solo
|------------------------|
|------------------------|
|------------------------|
|------------------------|
|------------------------|
|-10-10-3-3-0-0-7-7-9-10-|

Then Verse and Choruse and then your done.
            
Submit corrections

↑ Back to top | Tablatures and chords for acoustic guitar and electric guitar, ukulele, drums are parodies/interpretations of the original songs. You may use it for private study, scholarship, research or language learning purposes only