Home » B » Bobaflex »

Bobaflex - Home Bass

Artists:  A B C D E F G H I J K L M N O P Q R S T U V W X Y Z # 

Home Bass

(ver. 1) Click to play this song!
Bobaflex
Bobaflex - Home


Easy song and my First tab


I think this is all the bass plays. I don't know for a fact.

Drop - D tuning

Time (00-18)

G-------------------------------------------------------------------------------------|
D--5-5-5-5-5-5-5-5-5-5\8--------------------------------------------------------------|
A-------------------------------------------------------------------------------------|
D-5-5-5-5-5-5-5-5-5-5\8---------------------------------------------------------------|

Time 19-20)
G-------------------------------------------------------------------------------------|
D--8-8-8-8-8-8-8-8-8------------------------------------------------------------------|
A-------------------------------------------------------------------------------------|
D-8-8-8-8-8-8-8-8-8-------------------------------------------------------------------|

Time (21-25)
G-------------------------------------------------------------------------------------|
D--3-3-3-3-3--------------------------------------------------------------------------|
A-------------------------------------------------------------------------------------|
D-3-3-3-3-3---------------------------------------------------------------------------|

Repeat throwout the song.
(I think)
            
Submit corrections

↑ Back to top | Tablatures and chords for acoustic guitar and electric guitar, ukulele, drums are parodies/interpretations of the original songs. You may use it for private study, scholarship, research or language learning purposes only