Home » B » Bobaflex »

Bobaflex - Home Tabs

Artists:  A B C D E F G H I J K L M N O P Q R S T U V W X Y Z # 

Home Tabs

(ver. 1) Click to play this song!
Bobaflex

Tuning: Drop D

continue this through the beginning of the verse, its really thae bass line but it 
the same if u play it soft.
e|-----------------------------------------------------------------------------|
B|-----------------------------------------------------------------------------|
G|-----------------------------------------------------------------------------|
D|-----------------------------------------------------------------------------|
A|--4-4-4-4--------------------------------------------------------------------|
D|-4-4-4-4---------------------------------------------------------------------|

do this through verse, listen to music to know when to switch
e|----------------------------------------------------------------------------|
B|----------------------------------------------------------------------------|
G|----------------------------------------------------------------------------|
D|----------------------------------------------------------------------------|
A|-------7-7-7-7-2-2-2-2-4-4-4------------------------------------------------|
D|-4-6-7-7-7-7-2-2-2-2-4-4-4--------------------------------------------------|

electric stats at 1:19 after 1st chorus and follows same pattern as before
e|-----------------------------------------------------------------------------|
B|-----------------------------------------------------------------------------|
G|-----------------------------------------------------------------------------|
D|-----------------------------------------------------------------------------|
A|-7s6s4-----4--6--7--2--4-----------------------------------------------------|
D|-7s6s4-----4--6--7--2--4-----------------------------------------------------|

not sure about chorus yet but its a start
e|------------------------------------------|
B|------------------------------------------|
G|------------------------------------------|
D|--------------7-7-------------------------|
A|--4-6-7-7-2-2-5-5-4-4-6-7-7-2-2-3s4--3s4--|                                            
 x2
D|--4-6-7-7-2-2-0-0-4-4-6-7-7-2-2-3s4--3s4--|

solo starts at 2:27
e|--------------------------------------------------------------------------|
B|--12--14-14p12-----------12-14-12-12-15-15s14-12-14-----------------------|
G|14--14---------14---------------------------------------------------------|
D|-----------------14-------------------------------------------------------|
A|--------------------------------------------------------------------------|
E|--------------------------------------------------------------------------|

e|-----------------------------------------------14------------------------------|
B|--12--14-14p12------------12-14-12-15-15-14-12---------------------------------|
G|14--14---------14-12-----------------------------------------------------------|
D|-------------------------------------------------------------------------------|
A|-------------------------------------------------------------------------------|
E|-------------------------------------------------------------------------------|

e|-17-19-17-21-21p19-17-19-----------------------------------------------------|
B|-------------------------------19-21-21b(22)r21-19-17-19-19p17h19------------|
G|-----------------------------------------------------------------------------|
D|-----------------------------------------------------------------------------|
A|-----------------------------------------------------------------------------|
E|-----------------------------------------------------------------------------|

e|-------------12-----16h17p16-------------------------------------------------|
B|-14-14-12--------------------17-19-------------------------------------------|
G|----------14-----------------------------------------------------------------|
D|-----------------------------------------------------------------------------|
A|-----------------------------------------------------------------------------|
E|-----------------------------------------------------------------------------|
Awesome song, hope you enjoy, let me know if you have anything to add or correct.

| /  slide up
| \  slide down
| h  hammer-on
| p  pull-off
| ~  vibrato
| +  harmonic
| x  Mute note
            
Submit corrections

↑ Back to top | Tablatures and chords for acoustic guitar and electric guitar, ukulele, drums are parodies/interpretations of the original songs. You may use it for private study, scholarship, research or language learning purposes only