» » »

Bloc Party - Ion Square Bass

Artists:  A B C D E F G H I J K L M N O P Q R S T U V W X Y Z # 

Ion Square Bass

(ver. 1) Click to play this song!
Bloc Party
 Rating:
4/5 (4 votes)

 Ion Square lessons Tabs too difficult? Try these video lessons and learn fast
 
                VERSE Repeat this until 2:17
G|------------------------------------|
D|------------------------------------|
A|-8~---10-8~----10~--5~---7~--5~--7~-|
E|------------------------------------|

CHORUS I carry your heart... (x4) until 2:40
G|---------------------------------------------|
D|---------------------------------------------|
A|-88888888-1010101010101010----------77777777-|
E|---------------------------88888888----------|

VERSE Repeat this until 4:20
G|------------------------------------|
D|------------------------------------|
A|-8~---10-8~----10~--5~---7~--5~--7~-|
E|------------------------------------|

CHORUS I carry your heart... (x4) until 4:43
G|---------------|
D|---------------|
A|-8~-10~---7~-7-|
E|--------8~-----|

4:43 - 5:10
G|-----------------------------------------------------|
D|-----------------------------------------------------|
A|-88888888-1010101010101010----------1212121212121212-|
E|---------------------------88888888------------------|

G|---------------------------------------------|
D|---------------------------------------------|
A|-88888888-1010101010101010----------77777777-|
E|---------------------------88888888----------|

G|-----------------------------------------------------|
D|-----------------------------------------------------|
A|-88888888-1010101010101010----------1212121212121212-|
E|---------------------------88888888------------------|

G|---------------------------------------------|
D|---------------------------------------------|
A|-88888888-1010101010101010-77777777-77777777-|
E|---------------------------------------------|

5:10 - 5:35
G|---------------|
D|---------------|
A|-1212-88-77----|
E|------------88-|
            
Submit corrections


        Ion Square lessons Hard to play? Try these video lessons and learn fast Ion Square lessons
        
↑ Back to top | Tablatures and chords for acoustic guitar and electric guitar, ukulele, drums are parodies/interpretations of the original songs. You may use it for private study, scholarship, research or language learning purposes only