» » »

Bloc Party - One Month Off Bass

Artists:  A B C D E F G H I J K L M N O P Q R S T U V W X Y Z # 

One Month Off Bass

(ver. 1) Click to play this song!
Bloc Party
 Rating:
4/5 (4 votes)

 One Month Off lessons Tabs too difficult? Try these video lessons and learn fast
 
                Intro
G|---------------------------|
D|---------------------------|
A|-----8-8---------8-8----55-|
E|-55------88---55-----88----|

VERSE 1 (x2)
G|----------------------------|
D|----------------------------|
A|-----8-8---------8-8-----55-|
E|-55------88---55------88----|

CHORUS
     x3
D|-------------|-----------------|
G|-------------|-----------------|
A|-------88-77-|-5-5-5-5-5-5-5-5-|
E|-55-88-------|-----------------|

VERSE 2(x2)
G|----------------------------|
D|----------------------------|
A|-----8-8---------8-8-----55-|
E|-55------88---55------88----|
                          (11's+12's not 1's+2's!)
G|-------------------------------------------------------------------------|
D|-------------------------------------------------------------------------|
A|-88888888---------------------------1212121212121212---88888888----------|
E|----------88888888-1111111111111111-----------------------------88888888-|

CHORUS (x2)
     x3
D|-------------|-----------------|
G|-------------|-----------------|
A|-------88-77-|-5-5-5-5-5-5-5-5-|
E|-55-88-------|-----------------|

If you need time... (x2)
D|-----------------------------------------------|
G|-----------------------------------------------|
A|-------88--------88----------88---555555555555-|
E|-55-88-----55-88------55-88--------------------|

CHORUS (x2)
     x3
D|-------------|-----------------|
G|-------------|-----------------|
A|-------88-77-|-5-5-5-5-5-5-5-5-|
E|-55-88-------|-----------------|

(x2)
       x3
D|----------------|-----------------|
G|----------------|-----------------|
A|---------1010-9-|-7-7-7-7-7-7-7-7-|
E|-77-1010--------|-----------------|

Then the cool guitar part come in and play this 
x2)
       x3
D|----------------|-----------------|
G|----------------|-----------------|
A|---------1010-9-|-7-7-7-7-5-5-5-5-|
E|-77-1010--------|-----------------|

Once Keles vocals start going wierd....
   (x4)
D|-----|
G|-----|
A|-----|
E|-7-7-|
            
Submit corrections


        One Month Off lessons Hard to play? Try these video lessons and learn fast One Month Off lessons
        
↑ Back to top | Tablatures and chords for acoustic guitar and electric guitar, ukulele, drums are parodies/interpretations of the original songs. You may use it for private study, scholarship, research or language learning purposes only