» » »

Bloc Party - Ion Square Tabs

Artists:  A B C D E F G H I J K L M N O P Q R S T U V W X Y Z # 

Ion Square Tabs

(ver. 1) Click to play this song!
Bloc Party
 Rating:
4/5 (4 votes)

 Ion Square lessons Tabs too difficult? Try these video lessons and learn fast
 
                i decided to tab this again, considering my expert in tabbing has gone up a notch.
this is based on their live and intimate performance. please rate again i know my tab 
was horrible, but i'm essentially positive that ALMOST everything here is correct.

verses
keyboard.
Pick as many times as you feel necessary i'm just being lazy.
-------------------------------------------------|
-6-6-6-6-8-8----6-6-6-6-8-8----------------------|
-------------------------------------------------|
-------------------------------------------------|
-------------------------------------------------|
-------------------------------------------------|

-------------------------------------------------|
-3-3-3-3-5-5----3-3-3-3-5-5----------------------|
-------------------------------------------------|
-------------------------------------------------|
-------------------------------------------------|
-------------------------------------------------|

russell starts playing this somewhere through the verse


----------------------------------------------------------|
----------------------------------------------------------|
--------14------------------------------------------------| over and over
--15-17---------------------------------------------------|
----------------------------------------------------------|
----------------------------------------------------------|

and the he drops in a 17 instead of the 14 every now and then. he has some weird pedal
so it could be a combination of two notes, but that sounds the best to me. i like to do 
little riffs going down 17 15 14 on the g and back to 15 on the d but its up to you.

during this period the keyboard plays just a 6 over and over.

chorus


russell


----------------------------------------------------------|
----------------------------------------------------------|
-5-5-7-9-12-12-14-14-5-5-7-9-12-12-9-9--------------------|
----------------------------------------------------------|
----------------------------------------------------------|
----------------------------------------------------------|

except for the last bar he plays 4 12's instead of going to the 9th.

2nd verse

russell


------------------------------------------------------------------|
------------------------------------------------------------------|
-5---5---5---5----------------------------------------------------|
---3---3---3---3---ect.-------------------------------------------|
------------------------------------------------------------------|
------------------------------------------------------------------|

is a bore....
---------------------------------------------------------------|
---------------------------------------------------------------|
---5----5-----5----5-------------------------------------------|
---------------------------------------------------------------|
-----5-----5----5----5-----------------------------------------|
---------------------------------------------------------------|

and i reach...


-----------------------------------------------------------------------|
-----------------------------------------------------------------------|
--5---5---5---3--------------------------------------------------------|
----3---3---3------x2---7----7---7---5---------------------------------|
------------------------5----5---5---------x2--------------------------|
-----------------------------------------------------------------------|

coz i love my mind...


------------------------------------------------------------|
------------------------------------------------------------|
---5---5---5-7-9--9--9--9--10-------------------------------|
-----3---3--------------------------------------------------|
------------------------------------------------------------|
------------------------------------------------------------|


------------------------------------------------------------|
------------------------------------------------------------|
--5--5--5-7--9--9--9--9--10---------------------------------|
------------------------------------------------------------|
---5--5-----------------------------------------------------|
------------------------------------------------------------|


so lets stay iiiiinnn....
1---1---1---1---3---3---1---1-------------------------------------------|
------------------------------------------------------------------------|
------------------------------------------------------------------------|
--3---3---3---3---3---3---3---3-----------------------------------------|
------------------------------------------------------------------------|
------------------------------------------------------------------------|


1---1---1---1---3---3---5---5-------------------------------------------|
------------------------------------------------------------------------|
------------------------------------------------------------------------|
--3---3---3---3---3---3---3---3-----------------------------------------|
------------------------------------------------------------------------|
------------------------------------------------------------------------|

1---1---1---1---3---3---1---1-------------------------------------------|
------------------------------------------------------------------------|
------------------------------------------------------------------------|
--3---3---3---3---3---3---3---3-----------------------------------------|
------------------------------------------------------------------------|
------------------------------------------------------------------------|


1---1---1---1---3---3-----3---1----6---1------------------------------|
----------------------------1---1----1---1----------------------------|
----------------------------------------------------------------------|
--3---3---3---3---3---3-----------------------------------------------|
----------------------------------------------------------------------|
----------------------------------------------------------------------|

to be continued.
            
Submit corrections


        Ion Square lessons Hard to play? Try these video lessons and learn fast Ion Square lessons
        
↑ Back to top | Tablatures and chords for acoustic guitar and electric guitar, ukulele, drums are parodies/interpretations of the original songs. You may use it for private study, scholarship, research or language learning purposes only