» » »

Bloc Party - This Modern Love Bass

Artists:  A B C D E F G H I J K L M N O P Q R S T U V W X Y Z # 

This Modern Love Bass

(ver. 1) Click to play this song!
Bloc Party
 Rating:
4/5 (4 votes)

 This Modern Love lessons Tabs too difficult? Try these video lessons and learn fast
 
                ----------------------------------------------------------------------------
		     This Modern Love - Bloc Party
----------------------------------------------------------------------------

 
Tuning:Standard (E,A,D,G)

Intro (x1)
G|--5-5-5-5-5-5-4-4-9-9-9-9-10-10-10-9-5-5-5-5-5-5-4-4-2-2-2-2--|
D|--------------------------------------------------------------|
A|--------------------------------------------------------------|
E|--------------------------------------------------------------|

Verse (x6)
G|--5-5-5-5-5-5-4-4-9-9-9-9-10-10-10-9-5-5-5-5-5-5-4-4-2-2-2-2--|
D|--------------------------------------------------------------|
A|--------------------------------------------------------------|
E|--------------------------------------------------------------|

---Pause---(No bass here, just guitar)

Verse (x9)
G|--5-5-5-5-5-5-4-4-9-9-9-9-10-10-10-9-5-5-5-5-5-5-4-4-2-2-2-2--|
D|--------------------------------------------------------------|
A|--------------------------------------------------------------|
E|--------------------------------------------------------------|

Break (keep playing this until the guitar comes back in properly)
G|------------------|
D|------------------|
A|-3-3-3-3-3-3-0-0--|
E|------------------|
Then play this until the first theme comes back in
G|------------------|
D|------------------|
A|--33333333--------|
E|------------------|

Verse (x1)
G|--5-5-5-5-5-5-4-4-9-9-9-9-10-10-10-9-5-5-5-5-5-5-4-4-2-2-2-2--|
D|--------------------------------------------------------------|
A|--------------------------------------------------------------|
E|--------------------------------------------------------------|

Outro (x1)
G|--5--|
D|-----|
A|-----|
E|-----|

This song is great and i'm pretty sure this tab is about 98% correct. Plz rate. Thnx!
            
Submit corrections


        This Modern Love lessons Hard to play? Try these video lessons and learn fast This Modern Love lessons
        
↑ Back to top | Tablatures and chords for acoustic guitar and electric guitar, ukulele, drums are parodies/interpretations of the original songs. You may use it for private study, scholarship, research or language learning purposes only