» » »

Bloc Party - Ion Square Chords

Artists:  A B C D E F G H I J K L M N O P Q R S T U V W X Y Z # 

Ion Square Chords

(ver. 1) Click to play this song!
Bloc Party
 Rating:
4/5 (4 votes)

 Ion Square lessons Tabs too difficult? Try these video lessons and learn fast
 
                -------------------------------------------------------------------------------
-------------------------------------------------------------------------------

Tuning: Standard


E|--------------------------------------------|
B|--------------------------------------------|
G|--10-------------------12-------------------|
D|--10-- x 12 -----------12--x 3--------------| Repeat
A|---8-------------------10-------------------|
E|--------------------------------------------|

E|-------------------------------------------|
B|-------------------------------------------|
G|--7--------------------9-------------------|
D|--7-- x 12 ------------9--x 3--------------| Repeat 
A|--5--------------------7-------------------|
E|-------------------------------------------|

Repeat both of those until 1:29 You should play each one 7 times.

Now at 1:29 someone comes in with a guitar...not sure who and plays the same thing only slower.

Of course those two chords above still work you should play them 4 more times if you want.

E|--------------------------------------------|
B|--------------------------------------------|
G|--10-------------------12-------------------|
D|--10-- x 3 ------------12--x 1--------------| Repeat 
A|---8-------------------10-------------------|
E|--------------------------------------------|

E|-------------------------------------------|
B|-------------------------------------------|
G|--7--------------------9-------------------|
D|--7-- x 3 -------------9--x 1--------------| Repeat 
A|--5--------------------7-------------------|
E|-------------------------------------------|

You should play each of these 4 times.

Now at 2:17 the chorus sets in, this is actually very easy!

E|------------------------------------------------------|
B|------------------------------------------------------|
G|--10--------------12-------------14----------17-------|
D|--10-x 4 ---------12--x 4--------14--x 4-----17--x 4--| 
A|---8--------------10-------------12----------15-------|
E|------------------------------------------------------|

E|------------------------------------------------------|
B|------------------------------------------------------|
G|--10--------------12-------------14----------9--------|
D|--10-x 4 ---------12--x 4--------12--x 4-----9---x 4--| 
A|---8--------------10-------------12----------7--------|
E|------------------------------------------------------|

You should play each of these twice. One then the other, not one and then it repeated.

The chorus ends at 2:40 and then it goes back to how it was before. You can play this 8 times...

E|--------------------------------------------|
B|--------------------------------------------|
G|--10-------------------12-------------------|
D|--10-- x 12 -----------12--x 3--------------| Repeat
A|---8-------------------10-------------------|
E|--------------------------------------------|

E|-------------------------------------------|
B|-------------------------------------------|
G|--7--------------------9-------------------|
D|--7-- x 12 ------------9--x 3--------------| Repeat 
A|--5--------------------7-------------------|
E|-------------------------------------------|

.....OR

This 8 times

E|--------------------------------------------|
B|--------------------------------------------|
G|--10-------------------12-------------------|
D|--10-- x 3 ------------12--x 1--------------| Repeat 
A|---8-------------------10-------------------|
E|--------------------------------------------|

E|-------------------------------------------|
B|-------------------------------------------|
G|--7--------------------9-------------------|
D|--7-- x 3 -------------9--x 1--------------| Repeat 
A|--5--------------------7-------------------|
E|-------------------------------------------|

Then at 4:20 the chorus comes back...the greatest part of an amazing song.

E|------------------------------------------------------|
B|------------------------------------------------------|
G|--10--------------12-------------14----------17-------|
D|--10-x 4 ---------12--x 4--------14--x 4-----17--x 4--| 
A|---8--------------10-------------12----------15-------|
E|------------------------------------------------------|

E|------------------------------------------------------|
B|------------------------------------------------------|
G|--10--------------12-------------14----------9--------|
D|--10-x 4 ---------12--x 4--------12--x 4-----9---x 4--| 
A|---8--------------10-------------12----------7--------|
E|------------------------------------------------------|

Play that 3 times.

The chorus ends at 5:08 from then on there just do this


E|-------------------------------------------------------------------------|
B|-------------------------------------------------------------------------|
G|--10-------------------12-----------------------------------------10-----|
D|--10-- x 12 -----------12--x 3-----Do those  8 xs and end on -----10-----| 
A|---8-------------------10-----------------------------------------8------|
E|-------------------------------------------------------------------------|

Well that's it! Hope you enjoyed! Please rate and comment as it is my first tab!

Once again if you wish to contact me for any reason you can do so by doing one of the following


Thanks again!
            
Submit corrections


        Ion Square lessons Hard to play? Try these video lessons and learn fast Ion Square lessons
        
↑ Back to top | Tablatures and chords for acoustic guitar and electric guitar, ukulele, drums are parodies/interpretations of the original songs. You may use it for private study, scholarship, research or language learning purposes only