» » »

Bloc Party - Hunting For Witches Bass

Artists:  A B C D E F G H I J K L M N O P Q R S T U V W X Y Z # 

Hunting For Witches Bass

(ver. 2) Click to play this song!
Bloc Party
 Rating:
4/5 (4 votes)

 Hunting For Witches lessons Tabs too difficult? Try these video lessons and learn fast
 
                
This is 100%, I was taught this by gordon from Bloc Party himself, so dont give it a bad 
because your rubbish and cant hear the bass properly

INTRO
G--------------------------| X8
D--------------------------|
A--------------------------|
E---2----------------------|

VERSE
G--------------------------| X2
D--------------------------|
A--------------------------|
E---2----------------------|

G-----------------------------| X2
D-----------------------------|
A--9-9----9-------------------|
E------2----------------------|

Pre Chorus

G------------------------------|----------------------------------|
D------------------------------|----------------------------------|
A---9-9---9-9---4-4---5-5------|---9-9----9----5-5----7-7---------|
E------------------------------|-------2------------5--------7----|

G------------------------------|-----------------------------------|
D------------------------------|-----------------------------------|
A---9-9---9-9---4-4---5-5------|---7-------------------------------|
E------------------------------|------------7----9-----------------|

VERSE
G--------------------------| X2
D--------------------------|
A--------------------------|
E---2----------------------|

G-----------------------------| X2
D-----------------------------|
A--9-9----9-------------------|
E------2----------------------|

  PRE CHORUS
G------------------------------|----------------------------------|
D------------------------------|----------------------------------|
A---9-9---9-9---4-4---5-5------|---9-9----9----5-5----7-7---------|
E------------------------------|-------2------------5-------7-----|

G------------------------------|--------------------------------|
D------------------------------|--------------------------------|
A---9-9---9-9---4-4---5-5------|--7----7------------------------|
E------------------------------|-----------7-----9--------------|

1ST CHORUS
"I was an ordinary man, with ordinary desire......"
G---------------------------------------------------------|
D-------4-------------------------------------------------|
A-5--5-----5-5-----------------5--9-9-9-9-9-9-9-9---------|
E---------------7-7-7-7-7-7-7-----------------------------|

G-----------------------------------------------|                         X2
D-----------------------------------------------|                    INORDER
A------4-------4--------------------------------|
E--5-5---5-5-5---5------------------------------|

G---------------------|---------------------|------------------------|
D---------------------|---------------------|------------------------|
A-5-5-5-5-5-5-5-5-----|-2-2-2-2-2-2-2-2-----|------------------------|
E---------------------|---------------------|-2-2-2-2-2-2-2-2--------|

G---------------------|---------------------|-----------------------|
D---------------------|---------------------|-----------------------|
A---------------------|-5-5-5-5-5-5-5-5-----|-2-2-2-2-2-2-2-2-------|
E-5-5-5-5-5-5-5-5-----|---------------------|-----------------------|

BUILD UP

G------------------|
D------------------|
A------------------|
E-2----------------|

BRIDGE

G-------------------------|  X3
D-6-6-7-7-9-9-------------|
A-------------------------|
E-------------------------|

G-----------------------|
D-6-6-7-9-7-6-----------|
A-----------------------|
E-----------------------|

G---------------------|-----------------------|
D---------------------|-----------------------|
A-4-4-4-4-4-4-4-4-----|-5-5-5-5-5-5-5-5-------|
E---------------------|-----------------------|

G---------------------|-----------------------|
D---------------------|-----------------------|
A-7-7-7-7-7-7-7-7-----|-----------------------|
E---------------------|-7-7-7-7-9-9-9-9-------|

  PRE CHORUS
G------------------------------|----------------------------------|
D------------------------------|----------------------------------|
A---9-9---9-9---4-4---5-5------|---9-9----9----5-5----7-7---------|
E------------------------------|-------2-------------5-------7----|

G------------------------------|-------------------------------|
D------------------------------|-------------------------------|
A---9-9---9-9---4-4---5-5------|--7----7-----------------------|
E------------------------------|-----------7-----9-------------|

BACK TO CHORUS

THE END
            
Submit corrections


        Hunting For Witches lessons Hard to play? Try these video lessons and learn fast Hunting For Witches lessons
        
↑ Back to top | Tablatures and chords for acoustic guitar and electric guitar, ukulele, drums are parodies/interpretations of the original songs. You may use it for private study, scholarship, research or language learning purposes only