» » »

Bloc Party - Hunting For Witches Bass

Artists:  A B C D E F G H I J K L M N O P Q R S T U V W X Y Z # 

Hunting For Witches Bass

(ver. 1) Click to play this song!
Bloc Party
 Rating:
4/5 (4 votes)

 Hunting For Witches lessons Tabs too difficult? Try these video lessons and learn fast
 
                -------------------------------------------------------------------------------
			     Hunting for Witches - Bloc Party
-------------------------------------------------------------------------------


Tuning: normal

Great new Bloc party song. Good bass. This is perfect. Enjoy

Verse: Bass rests for most of it then at 1.01
G|-----------------------------------------|
D|-----------------------------------------|
A|-99----99----does-it-once-more-in-verse--|
E|----2/-----------------------------------|

Chorus:
G|-------------------------------------------------------------|
D|-------------------------------------------------------------|
A|-99-99-44-55-99---99----55----77----99-99-44-55-7------------|
E|----------------2/---2/----55----77---------------7777-9999--|

verse: 1.38
G|------------------------------------------------------------|
D|------------------------------------------------------------|
A|-99----99-x4-then----1111---1212---(11's-and-12's-not-1's)--|
E|----2/------------2/------4/----5/--------------------------|

Chorus: same as before

Bridge: "I was and ordinary...."
G|---------1111---------------------------------------------------------------------|
D|-----1212----12-------------------------------------------------------------------|
A|------------------------------------4----4--x2-(11's-and-12's-not-1's)------------|
E|-1010-----------77777777-22222222-55-5-55-5---------------------------------------|

then:
G|----------------------------------------------------(11's-and-12's-not-1's)----|
D|-------------------------------------------------------------------------------|
A|--------------------------------------4----4-----------------------------------|
E|-1010101010101010-77777777-22222222-55-5-55-5-1010101012121212-77777777\-------|

Break - then:
G|-------------------------------------------------------------------------------|
D|-------------------------------------------------------------------------------|
A|-111112121414-111112121414-111112121414-111112141211-(11's-and-12's-not-1's)---|
E|-------------------------------------------------------------------------------|

then:
G|----------------------------------------|
D|----------------------------------------|
A|--44444444-55555555-77777777-2222-4444--|
E|----------------------------------------|

chorus

Bridge
The end. Enjoy


| /  slide up
| \  slide down
| h  hammer-on
| p  pull-off
| ~  vibrato
| +  harmonic
| x  Mute note
===============================================================================
            
Submit corrections


        Hunting For Witches lessons Hard to play? Try these video lessons and learn fast Hunting For Witches lessons
        
↑ Back to top | Tablatures and chords for acoustic guitar and electric guitar, ukulele, drums are parodies/interpretations of the original songs. You may use it for private study, scholarship, research or language learning purposes only