» » »

Bloc Party - Hunting For Witches Tabs

Artists:  A B C D E F G H I J K L M N O P Q R S T U V W X Y Z # 

Hunting For Witches Tabs

(ver. 1) Click to play this song!
Bloc Party
 Rating:
4/5 (4 votes)

 Hunting For Witches lessons Tabs too difficult? Try these video lessons and learn fast
 
                Band: Bloc Party

I submitted this before but noticed one problem... in BRIDGE Pt3 (go there now!)

16/2/08 - the main riff i put here is correct - note, but russel plays it an octave up 
live and in the recording.  i have changed the main riff to how he plays it.

Guitar 1 (Russel) Repeat this basically throught the song
e|-------------10-10-9------------------------|
b|-------10------------10-----9/10-----10/12--|
g|-11-11----11------------6-6------7-7--------|
d|--------------------------------------------|
a|--------------------------------------------|
E|--------------------------------------------|

e|-------------12-10-9------------------------|
b|-------10-------------------10/12-----12/14-|
g|-11-11----11------------7-7-------9-9-------|
d|--------------------------------------------|
a|--------------------------------------------|
E|--------------------------------------------|

CHORUS: Guitar 1 stays the same as the verse/intro until last line of the chorus when it plays:

e|-------12----10p9----9----------------------|
b|------------------10-------10------12p10----|
g|-11-11----11-----------7-7-----9-9----------|
d|--------------------------------------------|
a|--------------------------------------------|
E|--------------------------------------------|

Guitar 2: (Kele)
|---------------------------------------|
|---------------------------------------|
|--11-11----11-11-----------------------|
|--11-11----11-11--11-11--12-12---------|
|--9--9-----9--9---11-11--12-12---------|
|------------------9--9---10-10---------|

The next verse and chorus are the same

After the second chorus it goes into a sort of bridge. I can't figure out exactly what
are playing but it sounds something like this:

BRIDGE: Pt1

Guitar 1: with some sort of effect
e|----------------------------------------|
b|-5-5-5-5-5-5-5-5-10-10-10-10-9-9-9-9----|
g|----------------------------------------|
d|----------------------------------------| x3
a|----------------------------------------|
E|----------------------------------------|

e|----------------------------------------|
b|-5-5-5-5-5-5-5-5--5-5-5-5-5-5-5-5-------|
g|----------------------------------------|
d|----------------------------------------|
a|----------------------------------------|
E|----------------------------------------|

Guitar 2:
e|----------------------------------------|
b|----------------------------------------|
g|-11-11-11-11-11-11-11-11----------------|
d|-11-11-11-11-11-11-11-11-7-7-7-7-7-7-7-7| x4
a|-9--9--9--9--9--9--9--9--7-7-7-7-7-7-7-7|
E|-------------------------5-5-5-5-5-5-5-5|

_______________________________________________
BRIDGE:Pt2


Guitar 1: with same effect
e|-----------------------------------------|
b|-7-7-7-7-9-9-9-9-10-10-10-10-12-12-12-12-|
g|-----------------------------------------|
d|-----------------------------------------|
a|-----------------------------------------|
E|-----------------------------------------|

e|------------------------------------------------|
b|-14-14-14-14-14-14-14-14-14-14-14-14-14-14-14-14|
g|------------------------------------------------|
d|------------------------------------------------|
a|------------------------------------------------|
E|------------------------------------------------|

e|-----------------------------------------|
b|-7-7-7-7-9-9-9-9-10-10-10-10-14-14-14-14-|
g|-----------------------------------------|
d|-----------------------------------------|
a|-----------------------------------------|
E|-----------------------------------------|

Guitar 2:
e|----------------------------------------|
b|----------------------------------------|
g|-11-11-11-11-11-11-11-11----------------|
d|-11-11-11-11-11-11-11-11-7-7-7-7-7-7-7-7|
a|-9--9--9--9--9--9--9--9--7-7-7-7-7-7-7-7|
E|-------------------------5-5-5-5-5-5-5-5|

e|----------------------------------------|
b|----------------------------------------|
g|----------------------------------------|
d|-4-4-4-4-4-4-4-4-7-7-7-7-7-7-7-7--------|
a|-4-4-4-4-4-4-4-4-7-7-7-7-7-7-7-7--------|
E|-2-2-2-2-2-2-2-2-5-5-5-5-5-5-5-5--------|

e|----------------------------------------|
b|----------------------------------------|
g|-11-11-11-11-11-11-11-11----------------|
d|-11-11-11-11-11-11-11-11-7-7-7-7-7-7-7-7|
a|-9--9--9--9--9--9--9--9--7-7-7-7-7-7-7-7|
E|-------------------------5-5-5-5-5-5-5-5|

___________________________________________
BRIDGE: Pt3
(CORRECTED!! SLIDES ARE ON THE G STRING!!!) can be played as octaves as well.
Guitar 1:
e|---------------------------------------------------|
b|---------------------------------------------------|
g|-6\----7\----9\----7\----6\---7\---9\---7-6--------|
d|--------------------------------------------7-6----|
a|---------------------------------------------------|
E|---------------------------------------------------|

Guitar 2: In between each slide down:
e|--------------|
b|--------------|
g|--------------|
d|--------------| x3
a|--------------|
E|--4-4-5-5-7-7-|

e|--------------|
b|--------------|
g|--------------|
d|--------------|
a|--------------|
E|--4-4-5-7-5-4-|

e|--------------|
b|--------------|
g|-6/7/9\7------|
d|-x-x-x-x------|x3
a|-4/5/7\5------|
E|--------------|

e|--------------|
b|--------------|
g|-6/7/9\7\6----|
d|-x-x-x-x-x-7\6|
a|-4/5/7\5\4-x-x|
E|-----------5\4|

__________________________

Then go into a chorus

followed by BRIDGE Pt 1 and 2

FINISH

I've played this with another guitarist and it sounds perfect to the song.

Enjoy!
            
Submit corrections


        Hunting For Witches lessons Hard to play? Try these video lessons and learn fast Hunting For Witches lessons
        
↑ Back to top | Tablatures and chords for acoustic guitar and electric guitar, ukulele, drums are parodies/interpretations of the original songs. You may use it for private study, scholarship, research or language learning purposes only