Home » B » Black Flag »

Black Flag - T V Party Bass

Artists:  A B C D E F G H I J K L M N O P Q R S T U V W X Y Z # 

T V Party Bass

(ver. 1) Click to play this song!
Black Flag
Standard Tuning: (Low To High) E, A, D, G

   
     E    E  E E E E E E E    E  E E E E E E E
G: |---|-------------------|--------------------|
D:4|---|-------1-2-1-1-----|-------1-2-1-1------|
A:4|-2===(2)-2---------4-2===(2)-2---------4-2==|
E: |---|-------------------|--------------------|


       E  E E E E E E E    E  E E E E E E E
G: |--------------------|--------------------|x5 (0:18)
D:4|-------1-2-1-1------|-------1-2-1-1------|
A:4|==(2)-2---------4-2===(2)-2---------4-2==|
E: |--------------------|--------------------|


     Q  E E  E  E E E   Q  E E  E  E E E   Q  E E E E E E   Q  E E E E E E
G: |------------------|------------------|----------------|----------------|x2
D:4|------2=(2)-1-----|------2=(2)-1-----|----------------|----------------|
A:4|-2--2---------4-2-|-2--2---------4-2-|----------------|----------------|
E: |------------------|------------------|-2--x-x-x-x-x-x-|-2--x-x-x-x-x-x-|


     Q  E E E E E E   Q  E E E E E  E    Q  E E E E E  E    Q  E E E E E E
G: |----------------|------------------|------------------|----------------|x2 (0:39)
D:4|----------------|------------------|------------------|----------------|
A:4|--------------0-|-2--2-2-2-0-0-0h1-|-.--------0-0-0h1-|-.--------------|
E: |-0--0-0-0-0-0---|------------------|-2--2-2-2---------|-2--2-2-2-2-2-2-|


     Q  E E  E  E E E   Q  E E  E  E E E   Q  E E E E E E   Q  E E E E E E
G: |------------------|------------------|----------------|----------------|x2
D:4|------2=(2)-1-----|------2=(2)-1-----|----------------|----------------|
A:4|-2--2---------4-2-|-2--2---------4-2-|----------------|----------------|
E: |------------------|------------------|-2--x-x-x-x-x-x-|-2--x-x-x-x-x-x-|


     Q  E E E E E E   Q  E E E E E  E    Q  E E E E E  E    Q  E E E E E E
G: |----------------|------------------|------------------|----------------|x2 (1:00)
D:4|----------------|------------------|------------------|----------------|
A:4|--------------0-|-2--2-2-2-0-0-0h1-|-.--------0-0-0h1-|-.--------------|
E: |-0--0-0-0-0-0---|------------------|-2--2-2-2---------|-2--2-2-2-2-2-2-|


     Q  E E E E E E   Q  E E E E E E   Q  E E E E E E   Q  E E E E E E
G: |----------------|----------------|----------------|----------------|x2 (1:10)
D:4|----------------|----------------|----------------|----------------|
A:4|-4--4-4-4-4-4-0-|-0--0-0-0-0-0-0-|----------------|-2--2-2-1-2-2-2-|
E: |----------------|----------------|-0--0-0-0-0-0-0-|----------------|


     Q  E E E E E E   Q  E E E E E E   Q  E E E E E E   Q  E E E E E E
G: |----------------|----------------|----------------|----------------|
D:4|-2----0-0-------|----------------|-2----0-0-------|----------------|
A:4|----x-----2-x-0-|-2--2-2-2-2-2-2-|----x-----2-x-0-|-2--2-2-2-2-2-2-|
E: |----------------|----------------|----------------|----------------|


     Q  E E  E  E E E E E
G: |----------------------|
D:5|-2--2-0=(0)-----------|
A:4|------------2-2-2-2-2-|
E: |----------------------|


     Q  E E E E E E    E  E E E E E E E
G: |----------------|-------------------|x3 (1:22)
D:4|----------------|-------------------|
A:4|----------------|-------------------|
E: |-0--0-0-0-0-0-2===(2)-2-2-2-2-2-2-2-|


     Q  E E  E  E E E   Q  E E  E  E E E   Q  E E E E E E   Q  E E E E E E
G: |------------------|------------------|----------------|----------------|x2
D:4|------2=(2)-1-----|------2=(2)-1-----|----------------|----------------|
A:4|-2--2---------4-2-|-2--2---------4-2-|----------------|----------------|
E: |------------------|------------------|-2--x-x-x-x-x-x-|-2--x-x-x-x-x-x-|


     Q  E E E E E E   Q  E E E E E  E    Q  E E E E E  E    Q  E E E E E E
G: |----------------|------------------|------------------|----------------|x2 (1:41)
D:4|----------------|------------------|------------------|----------------|
A:4|--------------0-|-2--2-2-2-0-0-0h1-|-.--------0-0-0h1-|-.--------------|
E: |-0--0-0-0-0-0---|------------------|-2--2-2-2---------|-2--2-2-2-2-2-2-|


     Q  E E  E  E E E   Q  E E  E  E E E   Q  E E E E E E   Q  E E E E E E
G: |------------------|------------------|----------------|----------------|x2
D:4|------2=(2)-1-----|------2=(2)-1-----|----------------|----------------|
A:4|-2--2---------4-2-|-2--2---------4-2-|----------------|----------------|
E: |------------------|------------------|-2--x-x-x-x-x-x-|-2--x-x-x-x-x-x-|


     Q  E E E E E E   Q  E E E E E  E    Q  E E E E E  E    Q  E E E E E E
G: |----------------|------------------|------------------|----------------|x2 (2:06)
D:4|----------------|------------------|------------------|----------------|
A:4|--------------0-|-2--2-2-2-0-0-0h1-|-.--------0-0-0h1-|-.--------------|
E: |-0--0-0-0-0-0---|------------------|-2--2-2-2---------|-2--2-2-2-2-2-2-|


     Q  E E E E E E   Q  E E E E E E   Q  E E E E E E   Q  E E E E E E
G: |----------------|----------------|----------------|----------------|x2 (2:16)
D:4|----------------|----------------|----------------|----------------|
A:4|-4--4-4-4-4-4-0-|-0--0-0-0-0-0-0-|----------------|-2--2-2-1-2-2-2-|
E: |----------------|----------------|-0--0-0-0-0-0-0-|----------------|


     Q  E E E E E E   Q  E E E E E E   Q  E E E E E E   Q  E E E E E E
G: |----------------|----------------|----------------|----------------|
D:4|-2----0-0-------|----------------|-2----0-0-------|----------------|
A:4|----x-----2-x-0-|-2--2-2-2-2-2-2-|----x-----2-x-0-|-2--2-2-2-2-2-2-|
E: |----------------|----------------|----------------|----------------|


     Q  E E  E  E E E E E
G: |----------------------|
D:5|-2--2-0=(0)-----------|
A:4|------------2-2-2-2-2-|
E: |----------------------|


     Q  E E E E E E    E  E E E E E E E
G: |----------------|-------------------|x3 (2:27)
D:4|----------------|-------------------|
A:4|----------------|-------------------|
E: |-0--0-0-0-0-0-2===(2)-2-2-2-2-2-2-2-|


     Q  E E  E  E E E   Q  E E  E  E E E   Q  E E E E E E   Q  E E E E E E
G: |------------------|------------------|----------------|----------------|x2
D:4|------2=(2)-1-----|------2=(2)-1-----|----------------|----------------|
A:4|-2--2---------4-2-|-2--2---------4-2-|----------------|----------------|
E: |------------------|------------------|-2--x-x-x-x-x-x-|-2--x-x-x-x-x-x-|


     Q  E E E E E E   Q  E E E E E  E    Q  E E E E E  E    Q  E E E E E E
G: |----------------|------------------|------------------|----------------|x2 (2:49)
D:4|----------------|------------------|------------------|----------------|
A:4|--------------0-|-2--2-2-2-0-0-0h1-|-.--------0-0-0h1-|-.--------------|
E: |-0--0-0-0-0-0---|------------------|-2--2-2-2---------|-2--2-2-2-2-2-2-|


     Q  E E  E  E E E   Q  E E  E  E E E   Q  E E E E E E   Q  E E E E E E
G: |------------------|------------------|----------------|----------------|x2
D:4|------2=(2)-1-----|------2=(2)-1-----|----------------|----------------|
A:4|-2--2---------4-2-|-2--2---------4-2-|----------------|----------------|
E: |------------------|------------------|-2--x-x-x-x-x-x-|-2--x-x-x-x-x-x-|


     Q  E E E E E E   Q  E E E E E  E    Q  E E E E E  E    Q  E E E E E E
G: |----------------|------------------|------------------|----------------|x2 (3:11)
D:4|----------------|------------------|------------------|----------------|
A:4|--------------0-|-2--2-2-2-0-0-0h1-|-.--------0-0-0h1-|-.--------------|
E: |-0--0-0-0-0-0---|------------------|-2--2-2-2---------|-2--2-2-2-2-2-2-|


     Q  E E E E E E   Q  E E E E E E   Q  E E E E E E   Q  E E E E E E
G: |----------------|----------------|----------------|----------------|x2 (3:22)
D:4|----------------|----------------|----------------|----------------|
A:4|-4--4-4-4-4-4-0-|-0--0-0-0-0-0-0-|----------------|-2--2-2-1-2-2-2-|
E: |----------------|----------------|-0--0-0-0-0-0-0-|----------------|


     Q  E E E E E E   Q  E E E E E E   Q  E E E E E E   Q  E E E E E E
G: |----------------|----------------|----------------|----------------|
D:4|-2----0-0-------|----------------|-2----0-0-------|----------------|
A:4|----x-----2-x-0-|-2--2-2-2-2-2-2-|----x-----2-x-0-|-2--2-2-2-2-2-2-|
E: |----------------|----------------|----------------|----------------|


     Q  E E  E  E E E E E
G: |----------------------|
D:5|-2--2-0=(0)-----------|
A:4|------------2-2-2-2-2-|
E: |----------------------|


     Q  E E E E E E    E  E E E E E E E
G: |----------------|-------------------|x3 (3:33)
D:4|----------------|-------------------|
A:4|----------------|-------------------|
E: |-0--0-0-0-0-0-2===(2)-2-2-2-2-2-2-2-|


     Q  E E  E  E E E   Q  E E  E  E E E   W
G: |------------------|------------------|---|
D:4|------2=(2)-1-----|------2=(2)-1-----|---|
A:4|-2--2---------4-2-|-2--2---------4-2-|---|
E: |------------------|------------------|-2-|



==                       TABLATURE EXPLANATION                        ==

						      s p
----------                ----------                -------
----5h8--- Hammeron       ----(8)--- Ghost          ----6-- slap n'
----------                ---------- Note           -------  pop
----5p8--- Pulloff        ----------                --3----

     						        
----------                -------x-- Dead           -----.--
----5/8--- Slide Up       ---------- Note           -----7-- Staccato
----------                ----------                --.-----
----5\8--- Slide Down     ---------- Palm           --5-----  
			      P.M.   Mute
 E E E
-------                   -------- (0:30)            --------
-7---5- Rest              ---7----                   ---5^--- Bend
-------(shown w/ rhythm   -5---7--   ^               --------
-------      note)        --------  time stamp       --------

			     W~		              H*  S*
----------                ----------                 --------
-4:------- Time           ---------- Let             -----7-- Dotted
-4:------- Signature      ---6------ Ring            -7------ Note
----------                ----------                 --------

Rhythm:
  W  = whole note            
  H  = half note             
  Q  = quarter note          
  E  = eighth note           
  S  = sixteenth note   
  W* = dotted whole note            
  H* = dotted half note             
  Q* = dotted quarter note          
  E* = dotted eighth note           
  S* = dotted sixteenth note
            
Submit corrections

↑ Back to top | Tablatures and chords for acoustic guitar and electric guitar, ukulele, drums are parodies/interpretations of the original songs. You may use it for private study, scholarship, research or language learning purposes only