Home » B » Black Flag »

Black Flag - Rise Above Tabs

Artists:  A B C D E F G H I J K L M N O P Q R S T U V W X Y Z # 

Rise Above Tabs

(ver. 1) Click to play this song!
Black Flag
x = Dead Note/Rake 

INTRO - [ To dead-note, just place your thumb lightly on the E ] 
e-|-------------------------------------------------------------------------| 
B-|-------------------------------------------------------------------------| 
G-|-------------------------------------------------------------------------| 
D-|-------------------------------------------------------------------------| 
A-|--777-666-555-444---777-666-555-444---777-666-555-444---777-666-555-444--| 
E-|--xxx-xxx-xxx-xxx---xxx-xxx-xxx-xxx---xxx-xxx-xxx-xxx---xxx-xxx-xxx-xxx--| 

e-|-------------------------------------------------------------------------| 
B-|-------------------------------------------------------------------------| 
G-|-------------------------------------------------------55----------------| 
D-|--55--777----55--777-----------------------55--777x----55----------------| 
A-|--55--777----55--777----777-666-555-444----55--777x----33----0-----------| 
E-|--33--555----33--555----xxx-xxx-xxx-xxx----33--555x----------0-----------| 

e-|-------------------------------------------------------------------------| 
B-|-------------------------------------------------------------------------| 
G-|-------------------------------------------------------------------------| 
D-|--3-3333333333333---55-5555555555555-------------------------------------| 
A-|--3-3333333333333---55-5555555555555----[PICKSLIDE]----------------------| 
E-|--1-1111111111111---33-3333333333333-------------------------------------| 

VERSE - [ Release the 5 so it doesn't ring when you hit the 4 ] 
e-|-------------------------------------------------------------------------| 
B-|-------------------------------------------------------------------------| 
G-|-------------------------------------------------------------------------| 
D-|------44------44------44------4-----55--777---55--777--------------------|(x4) 
A-|--55------55------55------55--------55--777---55--777--------------------| 
E-|------------------------------------33--555---33--555--------------------| 

CHORUS 
e-|-------------------------------------------------------------------------| 
B-|-------------------------------------------------------------------------| 
G-|--9-xxxxxx---5-xxxxxx----------------------------------------------------| 
D-|--9-xxxxxx---5-xxxxxx---5-xxxxxx---55--777-------------------------------| 
A-|--7-xxxxxx---3-xxxxxx---5-xxxxxx---55--777-------------------------------| 
E-|------------------------3-xxxxxx---33--555-------------------------------| 

e-|-------------------------------------------------------------------------| 
B-|-------------------------------------------------------------------------| 
G-|--9-xxxxxx---7-xxxxxx----------------------------------------------------| 
D-|--9-xxxxxx---7-xxxxxx---9-xxxxxx---55--777---55-777----------------------| 
A-|--7-xxxxxx---5-xxxxxx---9-xxxxxx---55--777---55-777----------------------| 
E-|------------------------7-xxxxxx---33--555---33-555----------------------| 

SOLO RHYTHM 
e-|-------------------------------------------------------------------------| 
B-|-------------------------------------------------------------------------| 
G-|--7777777777777777-------------------------------------------------------| 
D-|--7777777777777777---55-777---55-777-------------------------------------|(x2) 
A-|--5555555555555555---55-777---55-777-------------------------------------| 
E-|---------------------33-555---33-555-------------------------------------| 

SOLO
e|--------------------------------------(x6)(x3)(x3)(x3)(x3)---| 
B|-6s77-6s77-6s77-6s77-10-10-10-14-14-14-10--13--12--11--14-15-| 
G|-------------------------------------------------------------| 
D|-------------------------------------------------------------| 
A|-------------------------------------------------------------| 
E|-------------------------------------------------------------| 

e|------------------| 
B|-6-7b-11-11-14-15-| 
G|------------------| 
D|------------------| 
A|------------------| 
E|------------------| 

OUTRO 
e-|-----------| |-------------------------------------------------------| 
B-|-----------| |-------------------------------------------------------| 
G-|-----------| |-------------------------------------------------------| 
D-|--55--777--|(x5) |--55--7~-----------------------------------------------| 
A-|--55--777--| |--55--7~-----------------------------------------------| 
E-|--33--555--| |--33--5~-----------------------------------------------| 
            
Submit corrections

↑ Back to top | Tablatures and chords for acoustic guitar and electric guitar, ukulele, drums are parodies/interpretations of the original songs. You may use it for private study, scholarship, research or language learning purposes only