Home » B » Black Flag »

Black Flag - T V Party Tabs

Artists:  A B C D E F G H I J K L M N O P Q R S T U V W X Y Z # 

T V Party Tabs

(ver. 2) Click to play this song!
Black Flag

Intro/Verse:just play the single string riff faster for the intro/I did add one extra 
i think but it sounds better because it follows the vocals.

1|---------------------|----------------------------------------------|
2|---------------------|----------------------------------------------|
3|---------------------|----------------------------------------------|
4|---3-4-3------3-4-3--|---------------------------------6-6-6-6-4-4-4|
5|-4-------44-4-------4|---xxxxx-6-xxxxx-4-4-4-4-4-4-4-4-4-4-4-4-2-2-2|
6|---------------------|-4-xxxxx-4-xxxxx-2-2-2-2-2-2-2-2--------------|

----------------------------|
----------------------------|
----------------------------|
----------------------------|
-6-6-6-6-6-6-9-6-6-6-6-6-6-9|
-4-4-4-4-4-4-7-4-4-4-4-4-4-7|

Chorus:the last two strings are to b hit 8 times each.

1|------------------------------------------------------------------------|
2|------------------------------------------------------------------------|
3|------------------------------------------------------------------------|
4|------------------------------------------------------------------------|
5|-8-8-8-8-8-8-8-8-4-4-4-4-4-4-4-4-11-11-11-11-11-11-11-11-6-6-6-6-6-6-6-6|
6|-6-6-6-6-6-6-6-6-2-2-2-2-2-2-2-2--9--9--9--9--9--9--9--9-4-4-4-4-4-4-4-4|

----------------------------------------------------------------|
----------------------------------------------------------------|
----------------------------------------------------------------|
-11-11-9-xxxxxxxx-11-11-9-xxxxxxxx-11-11-9-xxxx-11-11-9-xxxx----|
--9--9-7-xxxxxxxx--9--9-7-xxxxxxxx--9--9-7-xxxx--9--9-7-xxxx-2-3|
----------------------------------------------------------------|
            
Submit corrections

↑ Back to top | Tablatures and chords for acoustic guitar and electric guitar, ukulele, drums are parodies/interpretations of the original songs. You may use it for private study, scholarship, research or language learning purposes only