Home » B » Black Flag »

Black Flag - Black Coffee Tabs

Artists:  A B C D E F G H I J K L M N O P Q R S T U V W X Y Z # 

Black Coffee Tabs

(ver. 1) Click to play this song!
Black Flag
E|-----------------------------------------------|
B|-----------------------------------------------|
G|-----------------------------------------------|
D|-----------------------------------------------|
A|-----2---5-7-5--2---5-7-5--2---5-7-5--------2--|
E|-----0-0-3-5-3--0-0-3-5-3--0-0-3-5-3--6-5-3-0--|


E|---------------------------------------------------------|
B|---------------------------------------------------------|
G|------------------------------------------------------3^-|
D|------------------------------------55----4--------------|
A|-----2222222---55555-77777-44444------------22222222-----|
E|-----0000000---33333-55555-22222-33----22---00000000-----|
       

E|-----------------------------3-2----------|
B|---------------------------------3-2------|
G|------------------------------------------|
D|---------------------44-4444-----------------|
A|-----77-7777-55-5555-22-2224-4---------------|
E|-----55-5555-33-3333---------2----------3-2--|
       Where have you been...

E|-------------------------|
B|-------------------------|
G|-------------------------|
D|-------------------------|
A|-----77-777-55-5555------|
E|-----55-555-33-3333--5^--|
       begining of chorus

E|-----------------------------------------------|
B|-----------------------------------------------|
G|-----------------------------------------------|
D|-----------------------------------------------|
A|-----2---5-7-5--2---5-7-5--2---5-7-5--------2--|
E|-----0-0-3-5-3--0-0-3-5-3--0-0-3-5-3--6-5-3-0--|
       Drinking black coffee...

E|-----------------------------------------------|
B|-----------------------------------------------|
G|-----------------------------------------------|
D|-----------7-7-7-7-XX-7-7-7-7-XX-7-7-7-7XXXXXX-|
A|-----------7-7-7-7-XX-7-7-7-7-XX-7-7-7-7XXXXXX-|
E|-----6-5-3-5-5-5-5-XX-5-5-5-5-XX-5-5-5-5XXXXXX-|
       Stab through my heart, Stab through my heart...

E|---------------------------------------------------|
B|---------------------------------------------------|
G|---------------------------------------------------|
D|-----5-------5---4-------4---3-------3---2-------2-|
A|-----5-----5-----4-----4-----3-----3-----2-----2---|
E|-----3-3-3-------2-2-2-------1-1-1-------0-0-0-----|
       Just in my mind...

E|--------------|
B|--------------|
G|--------------|
D|--------------|
A|-----------2--|
E|-----6-5-3-0--|
       Just in my mind!!

Repeat the whole thing. The second time is 
a little different but you get the idea.
Sorry about having no solo.
            
Submit corrections

↑ Back to top | Tablatures and chords for acoustic guitar and electric guitar, ukulele, drums are parodies/interpretations of the original songs. You may use it for private study, scholarship, research or language learning purposes only