Home » B » Black Flag »

Black Flag - Six Pack Tabs

Artists:  A B C D E F G H I J K L M N O P Q R S T U V W X Y Z # 

Six Pack Tabs

(ver. 1) Click to play this song!
Black Flag
SIX PACK- Black Flag 


Intro 
e|---------------------------------------------------------------------------| 
B|----------------------------66-------------66------------------------------| 
G|--------------------77777---66---7777777---66------------------------------| 
D|5555555/88888888----77777---44-- 7777777---44------------------------------| 
A|5555555/88888888----55555--------5555555-----------------------------------| 
E|3333333/66666666-----------------------------------------------------------| 

e|---------------------------------------------------------------------------| 
B|---------------------------------------------------------------------------| 
G|-------------------9-------------------------------------------------------| 
D|-9999999--6--4--6--9--999--7777--------------------------------------------| 
A|-9999999--6--4--6--7--999--7777--------------------------------------------| 
E|-7777777--4--2--4-----777--5555--------------------------------------------| 

During the rest of the song, after the verse it does a variation of the intro. 
It's hard to tab but easy to figure the rest of it out 
using the cd. 
            
Submit corrections

↑ Back to top | Tablatures and chords for acoustic guitar and electric guitar, ukulele, drums are parodies/interpretations of the original songs. You may use it for private study, scholarship, research or language learning purposes only