Home » B » Bayside »

Bayside - Devotion And Desire Tabs

Artists:  A B C D E F G H I J K L M N O P Q R S T U V W X Y Z # 

Devotion And Desire Tabs

(ver. 2) Click to play this song!
Bayside
DEVOTION AND DESIRE - SOLO TAB


This can be used for both the original and acoustic version.

Original - Standard
Acoustic - Half-Step



|---------------------------------------------------------------|
|---13----------------------------------------------------------|
|-12--12h14-12-10-9-10---9-----9-10--9--------------------------|
|----------------------12-10-12----12-10-12-----------------3---|
|------------------------------------------8-10-10-8/3-3-3-5-5--|
|---------------------------------------------------------------|


|------------------5---10p0-8p0-6p0-5p0-3p0-6p0-5p0-3p0---------|
|-------------------5-------------------------------------------|
|--------------------6------------------------------------------|
|-5/6-5-3-3-5/7-8-7---------------------------------------------|
|--------5------------------------------------------------------|
|---------------------------------------------------------------|


|-8p0-6p0-10p0-8p0-12p0-10p0-12/13--------------10--------------|
|-------------------------------------------------10-11-13-11-10|
|----------------------------------12h14-12-10------------------|
|---------------------------------------------12----------------|
|---------------------------------------------------------------|
|---------------------------------------------------------------|


|-----------------------5-6-5-----------------------------------|
|-12-------------6-9-6--5-6-5-----------------------------------|
|---11h12h11--7-8-----7-----------------------------------------|
|---------------------------------------------------------------|
|---------------------------------------------------------------|
|---------------------------------------------------------------|
            
Submit corrections

↑ Back to top | Tablatures and chords for acoustic guitar and electric guitar, ukulele, drums are parodies/interpretations of the original songs. You may use it for private study, scholarship, research or language learning purposes only