Home » B » Bayside »

Bayside - Devotion And Desire Tabs

Artists:  A B C D E F G H I J K L M N O P Q R S T U V W X Y Z # 

Devotion And Desire Tabs

(ver. 1) Click to play this song!
Bayside
/=slide up
=slide down
b=bend
r=release(from bend)
h=hammer on
p=pull off
.=palm mute
                             Lead Guitar
Drop D
Intro
e---------------------------------------------------------------|
b-----65--------------------------------------------------------|
g-------76-77777777----------77777777------------------66666666-|
d-75-------77777777-88888888-77777777-7777777788888888-66666666-|
a---87-----55555555-88888888-55555555-7777777788888888-44444444-|
D-------------------88888888----------7777777788888888----------|

Verse
e------------------------------------------------|
b------------------------------------------------|
g-7-77-77-777-------------7-77-------------6-666-|
d-7-77-77-777-8-88-88-888-7-77-------------6-666-|
a-5-55-55-555-8-88-88-888-5-55-77-777-8-88-4-444-|
D-------------8-88-88-888------77-777-8-88-------|

Pre-Chorus
e---------------------------------------|
b---------------------------------------|
g-77777777----------7777------66-66-666-|
d-77777777-88888888-7777-7777-66-66-666-|
a-55555555-88888888-5555-7777-44-44-444-|
D----------88888888------7777-----------|
  ........ ........ .... ....
Chorus
e------------------------------------------------------------------------|
b------------------------------------------------------------------------|
g-77777777-----------------------7-10-9-10-7-10-9-10--10-9-10-12-10-9-10-|
d-77777777-88888888-5555-7777-5-3--------------------8-------------------|
a-55555555-88888888-5555-7777-5-3----------------------------------------|
D----------88888888-5555-7777-5-3----------------------------------------|

e---------------------------------|
b---------------------------------|
g--10-9-10-12-10-9-7-6-7-9-7-9-10-|
d-8-------------------------------|
a---------------------------------|
D---------------------------------|

Solo
e-----------------------------------------------------------------------------|
b----13-----------------------------------------------------------------------|
g-12---12/14-12-10-9-10--9-----9-10--9----------------------------------------|
d----------------------12-10-12----12-10-12-----------------3-3-5b6r5-3-3-5---|
a------------------------------------------8-10-10b-8--3-3-5-5---------5------|
D-----------------------------------------------------------------------------|

e------5---10p0-8p0-6p0-5p0-3p0-6p0-5p0-3p0-8p0-6p0-10p0-8p0-12p0-10p0-12/13-|
b-------5--------------------------------------------------------------------|
g--------6-------------------------------------------------------------------|
d-7-8-7----------------------------------------------------------------------|
a----------------------------------------------------------------------------|
D----------------------------------------------------------------------------|

e-------------------------------------------------9-7-5-|
b--------------10-11-13-11-10---------------------------|
g-12b13r12-10----------------12-------------6-9-6-------|
d------------12----------------11b12r11--7-8-----7------|
a-------------------------------------------------------|
D-------------------------------------------------------|

Bridge
e-------------3h5------------6-5-3------------6p5----------------|
b----------------------------------------------------------------|
g-7-7777777777---6-6666666666--------------------------------6h7-|
d-7-7777777777---6-6666666666-----8-8888888888---7-7777777777----|
a-5-5555555555---4-4444444444-----8-8888888888---7-7777777777----|
D---------------------------------8-8888888888---7-7777777777----|
    ..........     ..........       ..........     ..........
e--------------------------------------|
b--------------------------------------|
g--77777777-66666666-------------------|
d--77777777-66666666-88888888-77777777-| x2
a--55555555-44444444-88888888-77777777-|
D--------------------88888888-77777777-|

play beginning of intro

Outro
e-------------|
b-------------|
g-------------|
d-5-3-0-0-0-0-| a few times
a-5-3-0-0-0-0-|
D-5-3-0-0-0-0-|

                           Rhythm Guitar
Intro
e---------------------------------------------------------------|
b-----65--------------------------------------------------------|
g-------76-77777777----------77777777------------------66666666-|
d-75-------77777777-88888888-77777777-7777777788888888-66666666-|
a---87-----55555555-88888888-55555555-7777777788888888-44444444-|
D-------------------88888888----------7777777788888888----------|

Verse
e------------------------------------------------|
b------------------------------------------------|
g-7-77-77-777-------------7-77-------------6-666-|
d-7-77-77-777-8-88-88-888-7-77-------------6-666-|
a-5-55-55-555-8-88-88-888-5-55-77-777-8-88-4-444-|
D-------------8-88-88-888------77-777-8-88-------|

Pre-Chorus
e---------------------------------------|
b---------------------------------------|
g-77777777----------7777------66-66-666-|
d-77777777-88888888-7777-7777-66-66-666-|
a-55555555-88888888-5555-7777-44-44-444-|
D----------88888888------7777-----------|
  ........ ........ .... ....
Chorus
e-----------------------------------------------------------------|
b-----------------------------------------------------------------|
g-77777777------------------------77777777------------------------|
d-77777777-88888888-5555-7777-5-3-77777777-88888888-5555-7777-5-3-|
a-55555555-88888888-5555-7777-5-3-55555555-88888888-5555-7777-5-3-|
D----------88888888-5555-7777-5-3----------88888888-5555-7777-5-3-|

Solo
e---------------------------------------|
b---------------------------------------|
g--77777777----------7777------66666666-|
d--77777777-88888888-7777-7777-66666666-| x2
a--55555555-88888888-5555-7777-44444444-|
D-----------88888888------7777----------|

Bridge
e-----------------------------------------------------|
b-----------------------------------------------------|
g-7-7777777777-6-6666666666---------------------------|
d-7-7777777777-6-6666666666-8-8888888888-7-7777777777-|
a-5-5555555555-4-4444444444-8-8888888888-7-7777777777-|
D---------------------------8-8888888888-7-7777777777-|
    ..........   ..........   ..........   ..........
e--------------------------------------|
b--------------------------------------|
g--77777777-66666666-------------------|
d--77777777-66666666-88888888-77777777-| x2
a--55555555-44444444-88888888-77777777-|
D--------------------88888888-77777777-|

play beginning of intro

Outro
e-------------|
b-------------|
g-------------|
d-5-3-0-0-0-0-| a few times
a-5-3-0-0-0-0-|
D-5-3-0-0-0-0-|
            
Submit corrections

↑ Back to top | Tablatures and chords for acoustic guitar and electric guitar, ukulele, drums are parodies/interpretations of the original songs. You may use it for private study, scholarship, research or language learning purposes only