Home » B » Bayside »

Bayside - I Think Ill Be Ok Tabs

Artists:  A B C D E F G H I J K L M N O P Q R S T U V W X Y Z # 

I Think Ill Be Ok Tabs

(ver. 1) Click to play this song!
Bayside
its not perfect someone help this get going

intro
E----------------------------|-------------------------------------|
B----------------------------|-------------------------------------|
G----------------------------|-------------------------------------|
D-----4----------------------|-x3---5-4h5p4------------------------|
A-------------5-----7--------|--------------5-----5-7-5------------|
D-0-7---0--4-----7-----------|----0------------7-------------------|

intro Cont.
E----------------------------|-------------------------------------|
B----------------------------|-------------------------------------|
G----------------------------|-------------------------------------|
D-----4----------------------|------5-7-4---4h5p4------------------|
A-------------5-----7--------|------------7------5-----------------|
D-0-7---0--4-----7-----------|----0--------------------------------|


Intro Guitar 2    (i think this is all it does just kind of alternate between the two)
E-----------------|-----------------------------------------------|
B-----------------|-----------------------------------------------|
G---------7--or-7-|---7-7-7-7-7-77/-------------------------------|
D---0-----7-----x-|---7-7-7-7-7-77/-------------------------------|
A---0-----5-----5-|---5-5-5-5-5-55/-------------------------------|
D---0-------------|-----------------------------------------------|

Verse
E)-----------------------------------------------------------------|
B)--------------------------3--------------------------------------|
G)--------------------------2--------------------------------------|
D)--0----5-4--0---5-7---0---0-4-5--9--7----------------------------|
A)--0----4-4--0---5-7---0---0-4-5--9--7----------------------------|
D)--0----4-4--0---5-7---0---0-4-5--9--7----------------------------|

Pre- Chorus
E---------------------------------------------------------------|
B---------------------------------------------------------------|
G---------------------------------------------------------------|
D---0-----5---2---7----0---5---2----7-8-------------------------|
A---0-----5---2---7----0---5---2----7-8-------------------------|
D---0-----5---2---7----0---5---2----7-8-------------------------|

Chorus
E-------------------------------------------------------------------|
B-------------------------------------------------------------------|
G--------------or sometimes------------------------------------------|
D--9---5---0---7-8---(4)------------9--5--0--777777-----------------|
A--9---5---0---7-8---(4)--last time-9--5--0--777777-----------------|
D--9---5---0---7-8---(4)------------9--5--0--777777-----------------|

Bridge
E------------------------------------------------------------------|
B------------------------------------------------------------------|
G------------------------------------------------------------------|
D---55555--444444------5---7---------------------------------------|
A---55555--444444-x3---5---7---------------------------------------|
D---55555--444444------5---7---------------------------------------|
Pm      .......         ..........

Bridge Pt 2
E-----------------------------------------------------------------|
B-----------------------------------------------------------------|
G-----------------------------------------------------------------|
D---0----9----5--0-----5---7--------------------------------------|
A---0----9----5--0-----5---7---x2---------------------------------|
D---0----9----5--0-----5---7--------------------------------------|


ok there are all the parts figure out the strumming and order but i dont think i forgot 
the only part im not sure of is the 4th chord in the chorus. idk somebody fix it. -szember
            
Submit corrections

↑ Back to top | Tablatures and chords for acoustic guitar and electric guitar, ukulele, drums are parodies/interpretations of the original songs. You may use it for private study, scholarship, research or language learning purposes only