Home » B » Bayside »

Bayside - Landing Feet First Tabs

Artists:  A B C D E F G H I J K L M N O P Q R S T U V W X Y Z # 

Landing Feet First Tabs

(ver. 1) Click to play this song!
Bayside
----------------------------------------------------------------------------
----------------------------------------------------------------------------
This one's off their new album The Walking Wounded. There's a lot of dueling guitar type 
towards the end but I tried to make it playable for one guitarist. The verses are palm 
feel free to use anything here to make a better version.

Tuning: Drop D

Intro
e|--------------------------------------------------------------------------|
B|--------------------------------------------------------------------------|
G|-------6--------------6---------------------------------------------------|
D|------------------------7-------------------------------------------------|
A|---7-----(7)----7---------7-----------------------------------------------|
E|-7---7-----6/7----7---------7--6------------------------------------------|

(:05)
e|--------------------------------------------------------------------------|
B|--------------------------------------------------------------------------|
G|--------------------------------------------------------------------------|
D|-7777--7777-/-11-11---12-12-----4444-2222------2222-0000-2222-7777-4444---|
A|-7777--7777-/-11-11---12-12--11-4444-2222-4444-2222-0000-2222-7777-4444---|
E|-7777--6666-/-11-11---12-12--11-4444-2220-2222-2222-0000-2222-7777-4444---|

e|--------------------------------------------------------------------------|
B|--------------------------------------------------------------------------|
G|--------------------------------------------------------------------------|
D|-0000-2222-77777777-0000-2222-77777777-0000-2222-4444-0000-2222-7777--7-7-|
A|-0000-2222-77777777-0000-2222-77777777-0000-2222-4444-0000-2222-7777--7-7-|
E|-0000-2222-77777777-0000-2222-77777777-0000-2222-4444-0000-2222-7777--7-6-|

(:44)
e|--------------------------------------------------------------------------|
B|--------------------------------------------------------------------------|
G|------6666-7777-9999---------6666-7777-9999-------------------------------|
D|-4444-6666-7777-9999----4444-6666-7777-9999-------------------------------|
A|-4444-4444-5555-7777----4444-4444-5555-7777-------------------------------|
E|-4444----------------5--4444----------------------------------------------|


(1:06)
e|--------------------------------------------------------------------------|
B|--------------------------------------------------------------------------|
G|--------------------------------------------------------------------------|
D|-7777-7777-11-11-12-12--2222----------------------------------------------|
A|-7777-7777-11-11-12-12--2222----------------------------------------------|
E|-7777-6666-11-11-12-12--2222----------------------------------------------|

(1:06)
e|--------------------------------------------------------------------------|
B|--------------------------------------------------------------------------|
G|--------------------------------------------------------------------------|
D|-11p9-11p9-11----11p9-11p9-11----14--11p9-11p9-11--------7-9p7-9b-7-------|
A|--------------12\--------------12-----------------12-7h9------------8-7\--|
E|--------------------------------------------------------------------------|

(1:17)
e|--------------------------------------------------------------------------|
B|--------------------------------------------------------------------------|
G|--------------------------------------------------------------------------|
D|-7777--7777--11-11---12-12--4444-44444444-0000-2222-7777-4444-------------|
A|-7777--7777--11-11---12-12--4444-44444444-0000-2222-7777-4444-------------|
E|-7777--6666--11-11---12-12--4444-22222222-0000-2222-7777-4444-------------|

e|--------------------------------------------------------------------------|
B|--------------------------------------------------------------------------|
G|--------------------------------------------------------------------------|
D|-0000-2222-77777777-0000-2222-77777777-0000-2222-4444-0000-2222-7777-3----|
A|-0000-2222-77777777-0000-2222-77777777-0000-2222-4444-0000-2222-7777-3----|
E|-0000-2222-77777777-0000-2222-77777777-0000-2222-4444-0000-2222-7777-3----|

(1:55)
e|--------------------------------------------------------------------------|
B|--------------------------------------------------------------------------|
G|------6666-7777-------------6666-7777-9-9---------------------------------|
D|-4444-6666-7777-2222-3-4444-6666-7777-9-9-11\-----------------------------|
A|-4444-4444-5555-2222-3-4444-4444-5555-7-7-11\-----------------------------|
E|-4444------(00)-2222-3-4444---------------11\-----------------------------|

(2:20)                               x2 (2nd time)
e|-------------------------------------|------------------------------------|
B|-------------------------------------|------------------------------------|
G|-------------------------------------|-7777-9999--------------------------|
D|-44-444-4-99-999-22-222-2-77-7-11-11-|-7777-9999--------------------------|
A|-44-444-4-99-999-22-222-2-77-7-11-11-|-5555-7777--------------------------|
E|-44-444-4-99-999-22-222-2-77-7-11-11-|------------------------------------|

(2:24)                                   x2
e|-----------------------------------------|
B|-----------------------------------------|
G|--9b-6-----------------------------------|
D|-------9p7-9---------7-----7h9p7---7-----|
A|-------------7-7-7h9---7h9-------7---7\9/|
E|-----------------------------------------|

(2:42)
e|--------------------------------------------------------------------------|
B|--------------------------------------------------------------------------|
G|-----9------9----9----9---------------------------------------------------|
D|-9h11---9h11-9h11-9h11--9h11p9-7-6-7h9p7-6h7-9p7---7----------------------|
A|-------------------------------------------------9------------------------|
E|--------------------------------------------------------------------------|

(2:47)
e|--------------------------------------------------------------------------|
B|--------------------------------------------------------------------------|
G|---66----9----------------------------------------------------------------|
D|-7---9-11--11-9-11\--11-9-7-9-9b-7-9-7-6h7p6-----(11)(9)--(\13)-----------|
A|---------------------------------------------7-/9-12--11----14--12--------|
E|--------------------------------------------------------------------------|

e|---------------------------------------------------------------------------|
B|---------------------------------------------------------------------------|
G|--------------------------------------------9~-----------------------------|
D|-11h12p11-9-11p9------------------------9----------------------------------|
A|-----------------12p11-12p11-9\7-7/9-9-7-7---------------------------------|
E|---------------------------------------------------------------------------|

(3:10)
e|--------------------------------------------------------------------------|
B|--------------------------------------------------------------------------|
G|--------------------------------------------------------------------------|
D|-----------(14)-11-11-9-11-13b----------(14)-9b-7-9-7h9-7h9-7-9b-7-7------|
A|-----------(14)------------11b----------(14)----------------------8-------|
E|-11-11-9-11-14----------------11-11-9-11-14-------------------------------|

e|--------------------------------------------------------------------------|
B|--------------------------------------------------------------------------|
G|------------9-11----------------------------------------------------------|
D|-7-99-11-11---------------------------------------------------------------|
A|--------------------------------------------------------------------------|
E|--------------------------------------------------------------------------|

(2:47)
e|--------------------------------------------------------------------------|
B|--------------------------------------------------------------------------|
G|--------------------------------------------------------------------------|
D|-7777--7777--11-11---12-12--4444-44444444-0000-2222-7777-4444-------------|
A|-7777--7777--11-11---12-12--4444-44444444-0000-2222-7777-4444-------------|
E|-7777--6666--11-11---12-12--4444-22222222-0000-2222-7777-4444-------------|

e|--------------------------------------------------------------------------|
B|--------------------------------------------------------------------------|
G|--------------------------------------------------------------------------|
D|-0000-2222-77777777-0000-2222-77777777-0000-2222-4444-0000-2222-77777-----|
A|-0000-2222-77777777-0000-2222-77777777-0000-2222-4444-0000-2222-77777-----|
E|-0000-2222-77777777-0000-2222-77777777-0000-2222-4444-0000-2222-77776-----|


(3:26)
e|--------------------------------------------------------------------------|
B|--------------------------------------------------------------------------|
G|------6666-7777-------------6666-7777-9-9---------------------------------|
D|-4444-6666-7777-2222-3-4444-6666-7777-9-9---11\7--------------------------|
A|-4444-4444-5555-2222-3-4444-4444-5555-7-7---11\7--------------------------|
E|-4444------(00)-2222-3-4444-----------------11\7--------------------------|


| /  slide up
| \  slide down
| h  hammer-on
| p  pull-off
| ~  vibrato
| +  harmonic
| x  Mute note
| b  Bend note

============================================================================
            
Submit corrections

↑ Back to top | Tablatures and chords for acoustic guitar and electric guitar, ukulele, drums are parodies/interpretations of the original songs. You may use it for private study, scholarship, research or language learning purposes only