Home » B » Bayside »

Bayside - Devotion And Desire Tabs

Artists:  A B C D E F G H I J K L M N O P Q R S T U V W X Y Z # 

Devotion And Desire Tabs

(ver. 3) Click to play this song!
Bayside
o---------------------------------------o
|     DEVOTION AND DESIRE (ACOUSTIC)    |
|              by BAYSIDE               |
o---------------------------------------o
This is my first tab. I'd consider it to be 99% accurate.
Also, figure out the strumming for yourself. I've thrown
in some of the strumming. As for the rest, you can figure
it out yourself.


GUITAR 1 - Half-Step
GUITAR 2 - Half-Step




[GUITAR ONE]
o---------------------------------------o
|               OVERVIEW                |
o---------------------------------------o
|[1x] Intro                             |
|[2x] Verse                             |
|[1x] Pre-Chorus                        |
|[1x] Chorus One                        |
|[1x] Chorus to Verse                   |
|[2x] Verse                             |
|[1x] Pre-Chorus                        |
|[1x] Chorus Two                        |
|[1x] Solo                              |
|[1x] Bridge                            |
|[1x] Chorus Two                        |
o---------------------------------------o


[INTRO] (1x)
|------------------------|
|-----65-----------------|
|-------76--7--7--------6|
|-75--------7--7--7--8--6|
|---87------5--5--5--8--4|
|--------------6--5--6---|




[VERSE] (2x)
|------------------------|
|------------------------|
|-7--7--7-------5/66-666-|
|-7--7--7--7-8--5/66-666-|
|-5--5--5--7-8--3/44-444-|
|----6-----5-6-----------|




[PRE-CHORUS]  (1x)
|------------------|
|------------------|
|-7--7--7--------6-|
|-7--7--7--7--8--6-|
|-5--5--5--7--8--4-|
|----6-----5--6----|
  .  .  .  .  .



[CHORUS ONE] (1x)
|------------------|
|------------------|
|-777--------------|
|-777------8--7--5-|
|-555------8--7--5-|
|----------6--5--3-|

|-----------------------------------------------------------------|
|-----------------------------------------------------------------|
|7-10-9-10-7-10-9-10--10-9-10/12-10-9--10-9-10/12-10-9-7-6-7/9-7-6|
|--------------------8----------------8---------------------------|
|-----------------------------------------------------------------|
|-----------------------------------------------------------------|




[CHORUS TO VERSE]
|------------|
|------------|
|-7-xxxxxxxx-|
|-7-xxxxxxxx-|
|-5-xxxxxxxx-|
|------------|



[VERSE] (2x)
|------------------------|
|------------------------|
|-7--7--7-------5/66-666-|
|-7--7--7--7-8--5/66-666-|
|-5--5--5--7-8--3/44-444-|
|----6-----5-6-----------|



[PRE-CHORUS]  (1x)
|------------------|
|------------------|
|-7--7--7--------6-|
|-7--7--7--7--8--6-|
|-5--5--5--7--8--4-|
|----6-----5--6----|
  .  .  .  .  .



[CHORUS TWO] (1x)
|------------|
|------------|
|-7----------|
|-7--8--7--5-|
|-5--8--7--5-|
|----6--5--3-|

|--------------------------------------------------------------------|
|--------------------------------------------------------------------|
|7-10-9-10-7-10-9-10--10-9-10/12-10-9--10-9-10/12-10-9-7-6-7/9-7-9-10|
|--------------------8----------------8------------------------------|
|--------------------------------------------------------------------|
|--------------------------------------------------------------------|




[SOLO] (1x)
|---------------------------------------------------------------|
|---13----------------------------------------------------------|
|-12--12h14-12-10-9-10---9-----9-10--9--------------------------|
|----------------------12-10-12----12-10-12-----------------3---|
|------------------------------------------8-10-10-8/3-3-3-5-5--|
|---------------------------------------------------------------|


|------------------5---10p0-8p0-6p0-5p0-3p0-6p0-5p0-3p0---------|
|-------------------5-------------------------------------------|
|--------------------6------------------------------------------|
|-5/6-5-3-3-5/7-8-7---------------------------------------------|
|--------5------------------------------------------------------|
|---------------------------------------------------------------|


|-8p0-6p0-10p0-8p0-12p0-10p0-12/13--------------10--------------|
|-------------------------------------------------10-11-13-11-10|
|----------------------------------12h14-12-10------------------|
|---------------------------------------------12----------------|
|---------------------------------------------------------------|
|---------------------------------------------------------------|


|-----------------------5-6-5-----------------------------------|
|-12-------------6-9-6--5-6-5-----------------------------------|
|---11h12h11--7-8-----7-----------------------------------------|
|---------------------------------------------------------------|
|---------------------------------------------------------------|
|---------------------------------------------------------------|




[BRIDGE] (1x)
|---------------------------------------|
|---------------------------------------|
|-7-------6-------------------6h7-------|
|-7--5h7--6--8h7/5--8--8h7--7-----------|
|-5-------4---------8-------7-----------|
|-------------------6-------5-----------|


|---------------------------------------|
|---------------------------------------|
|-7-------6-------------------6h7-------|
|-7--5h7--6--8h7/5--8--8h7--7-----------|
|-5-------4---------8-------7-----------|
|-------------------6-------5-----------|


|---------------------------------------------|
|---------------------------------------65----|
|-7-------6-------------------------------76-7|
|-7--5h7--6--8h7/5--8--8h7--7-777---75-------7|
|-5-------4---------8-------7-777-----87-----5|
|-------------------6-------5-555-0-----------|




[CHORUS TWO] (1x)
|------------|
|------------|
|-7----------|
|-7--8--7--5-|
|-5--8--7--5-|
|----6--5--3-|

|--------------------------------------------------------------------|
|--------------------------------------------------------------------|
|7-10-9-10-7-10-9-10--10-9-10/12-10-9--10-9-10/12-10-9-7-6-7/9-7-9-10|
|--------------------8----------------8------------------------------|
|--------------------------------------------------------------------|
|--------------------------------------------------------------------|







[GUITAR TWO]
o---------------------------------------o
|               OVERVIEW                |
o---------------------------------------o
|[1x] Intro                             |
|[2x] Verse                             |
|[1x] Pre-Chorus                        |
|[2x] Chorus One                        |
|[1x] Chorus to Verse                   |
|[2x] Verse                             |
|[1x] Pre-Chorus                        |
|[2x] Chorus Two                        |
|[3x] Solo                              |
|[1x] Bridge                            |
|[2x] Chorus Two                        |
o---------------------------------------o





[INTRO] (1x)
|------------------------|
|------------------------|
|-----20----7--7--------6|
|-32----32--7--7--7--8--6|
|---54------5--5--5--8--4|
|--------------6--5--6---|




[VERSE] (2x)
|------------------------|
|------------------------|
|-7--7--7-------5/66-666-|
|-7--7--7--7-8--5/66-666-|
|-5--5--5--7-8--3/44-444-|
|----6-----5-6-----------|




[PRE-CHORUS]  (1x)
|------------------|
|------------------|
|-7--7--7--------6-|
|-7--7--7--7--8--6-|
|-5--5--5--7--8--4-|
|----6-----5--6----|
  .  .  .  .  .



[CHORUS ONE] (2x)
|------------------|
|------------------|
|-777--------------|
|-777------8--7--5-|
|-555------8--7--5-|
|----------6--5--3-|



[CHORUS TO VERSE]
|------------|
|------------|
|-7-xxxxxxxx-|
|-7-xxxxxxxx-|
|-5-xxxxxxxx-|
|------------|



[VERSE] (2x)
|------------------------|
|------------------------|
|-7--7--7-------5/66-666-|
|-7--7--7--7-8--5/66-666-|
|-5--5--5--7-8--3/44-444-|
|----6-----5-6-----------|



[PRE-CHORUS]  (1x)
|------------------|
|------------------|
|-7--7--7--------6-|
|-7--7--7--7--8--6-|
|-5--5--5--7--8--4-|
|----6-----5--6----|
  .  .  .  .  .



[CHORUS TWO] (2x)
|------------|
|------------|
|-7----------|
|-7--8--7--5-|
|-5--8--7--5-|
|----6--5--3-|





[SOLO] (3x)
|------------|
|------------|
|-7----------|
|-7--8--7--5-|
|-5--8--7--5-|
|----6--5--3-|



[BRIDGE] (1x)
|----------------|
|----------------|
|-7---6----------|
|-7---6---8---7--|
|-5---4---8---7--|
|---------6---5--|


|----------------|
|----------------|
|-7---6----------|
|-7---6---8---7--|
|-5---4---8---7--|
|---------6---5--|


|--------------------------------|
|--------------------------------|
|-7---6-------------------20----7|
|-7---6---8---7-777---32----32--7|
|-5---4---8---7-777-----54------5|
|---------6---5-555-0------------|




[CHORUS TWO] (2x)
|------------|
|------------|
|-7----------|
|-7--8--7--5-|
|-5--8--7--5-|
|----6--5--3-|
            
Submit corrections

↑ Back to top | Tablatures and chords for acoustic guitar and electric guitar, ukulele, drums are parodies/interpretations of the original songs. You may use it for private study, scholarship, research or language learning purposes only