» » »

All That Remains - This Calling Bass

Artists:  A B C D E F G H I J K L M N O P Q R S T U V W X Y Z # 

This Calling Bass

(ver. 3) Click to play this song!
All That Remains
 Rating:
4/5 (4 votes)

 This Calling lessons Tabs too difficult? Try these video lessons and learn fast
 
                This Calling
Bassist: Jeanne Sagan
Tuning: Drop D


i am 99% sure this is correct

h = hammer on
p = pull off
refering to the note above it


|----------------|----------------|----------------|----------------|
|----------------|----------------|----------------|----------------|
|5-----------5-3-|5-------5-3---3-|5-----------5-3-|5-------5---3---|
|--0000000000----|--000000----0---|--0000000000----|--000000--------|

|----------------|----------------|----------------|----------------|
|----------------|----------------|----------------|----------------|
|5-----------5-3-|5-------1-1---3-|5-----------5-3-|5-------1-1---3-|
|--0-0-0-0-0-----|--000-00----0---|--0-0-0-0-0-----|--000-00----0---|

|----------------|----------------|----------------|----------------|
|----------------|----------------|----------------|----------------|
|5-----------5-3-|5-------1-1---3-|5-----------5-3-|5-------1-1---3-|
|--0-0-0-0-0-----|--000-00----0---|--0-0-0-0-0-----|--000-00----0---|

|----------------|----------------|----------------|----------------|
|----------------|----------------|------2~~~------|--------575-----|
|5--3--0~~~~~~~~~|1~~~~~~~~~~~1-11|3~~~3-----3~~~~~|555-555----07877|
|----------------|----------------|----------------|----------------|
                                                             hp hhp
|----------------|----------------|----------------|----------------|
|--------575-----|----------------|------2~~~------|----------------|
|555-555----07877|1~~~~~1~~~~~1-11|3~~~3-----3~~~~~|5-----------5-3-|
|----------------|----------------|----------------|--0-0-0-0-0-----|
          hp hhp
|----------------|----------------|----------------|----------------|
|----------------|----------------|----------------|----------------|
|5-------5-3---3-|5-----------5-3-|5-------5---3---|5-----------5-3-|
|--0-0-0-----0---|--0-0-0-0-0-----|--0-0-0---------|--0-0-0-0-0-----|

|----------------|----------------|----------------|----------------|
|----------------|----------------|----------------|----------------|
|5-------1-1---3-|5-----------5-3-|5-------1---3---|5-----------5-3-|
|--0-0-0-----0---|--0-0-0-0-0-----|--0-0-0---------|--0-0-0-0-0-----|

|----------------|----------------|----------------|----------------|
|----------------|----------------|----------------|----------------|
|5-------1-1---3-|5-----------5-3-|5-------1---3---|1~~~~~~~~~~~1-11|
|--0-0-0-----0---|--0-0-0-0-0-----|--0-0-0---------|----------------|

|----------------|----------------|----------------|----------------|
|------2~~~------|--------575-----|--------575-----|----------------|
|3~~~3-----3~~~~~|555-555----07877|555-555----07877|1~~~~~~~~~~~1-11|
|----------------|----------------|----------------|----------------|
                           hp hhp           hp hhp
|----------------|----------------|----------------|----------------|
|------2~~~------|--------575-----|--------575-----|----------------|
|3~~~3-----3~~~~~|555-555----07877|555-555----07877|1~~~~~1~~~~~1-11|
|----------------|----------------|----------------|----------------|
                           hp hhp           hp hhp
|----------------|----------------|----------------|----------------|
|------2~~~------|----------------|----------------|------------2---|
|3~~~3-----3~~~~~|5-----5-----5---|--5-3-0-1~~~~~~~|~~1-0~~~~~0---3-|
|----------------|--0000--0000--0-|0---------------|----------------|

|----------------|----------------|----------------|----------------|
|----------------|----------------|----------------|----------------|
|5-----5-----5---|--5-3-0-1~~~~~~~|~~1-0~~~~~--3-1-|5-----5-----5---|
|--0000--0000--0-|0---------------|----------0-----|--0000--0000--0-|

|----------------|----------------|----------------|----------------|
|----------------|------------2---|----------------|----------------|
|--5-3-0-1~~~~~~~|~~1-0~~~~~0---3-|5-----5-----5---|--5-3-0-1~~~~~~~|
|0---------------|----------------|--0000--0000--0-|0---------------|

|----------------|----------------|----------------|----------------|
|----------------|----------------|----------------|----------------|
|~~1-0~~~~~--3-1-|----------------|----------------|----------------|
|----------0-----|--00000-0-0-----|--0-0-0-----0---|--0-0-0-0-0-----|

|----------------|----------------|----------------|----------------|
|----------------|----------------|----------------|----------------|
|----------------|----------------|----------------|----------------|
|--0-0-0-----0---|--0-0-0-0-0-----|--0-0-0-----0---|--0-0-0-0-0-----|

|----------------|----------------|----------------|----------------|
|----------------|----------------|----------------|----------------|
|----------------|----------------|----------------|----------------|
|--0-0-0---0---0-|--0-0-0-0-0-----|--0-0-0-----0---|--0-0-0-0-0-----|

|----------------|----------------|----------------|----------------|
|----------------|----------------|------2~~~------|----------------|
|----------------|1~~~~~~~~~~~1-11|3~~~3-----3~~~~~|5--5--5-----555-|
|--0-0-0---0---0-|----------------|----------------|----------------|

|----------------|----------------|----------------|----------------|
|3~~~~~2~~~~~----|----------------|------2~~~------|----------------|
|------------3~~~|1~~~~~~~~~~~1-11|3~~~3-----3~~~~~|5--5-5~~~~~~~~~~|
|----------------|----------------|----------------|----------------|

|----------------|----------------|----------------|----------------|
|------------3~~~|----------------|------2~~~------|--------575-----|
|5~~~~~3~~~~~----|1~~~~~~~~~~~1-11|3~~~3-----3~~~~~|555-555----07877|
|----------------|----------------|----------------|----------------|
                                                             hp hhp
|----------------|----------------|----------------|----------------|
|--------575-----|----------------|------2~~~------|--------575-----|
|555-555----07877|1~~~~~1~~~~~1-11|3~~~3-----3~~~~~|555-555----07877|
|----------------|----------------|----------------|----------------|
          hp hhp                                             hp hhp
|----------------|----------------|----------------|----------------|
|--------575-----|----------------|------2~~~------|----------------|
|555-555----07877|1~~~~~1~~~~~1-11|3~~~3-----3~~~~~|5---------------|
|----------------|----------------|----------------|--0-0-0-0-0-----|
          hp hhp
|----------------|----------------|----------------|----------------|
|----------------|----------------|----------------|----------------|
|----------------|----------------|----------------|----------------|
|--0-0-0-----0---|--0-0-0-0-0-----|--0-0-0---0---0-|--0-0-0-0-0-----|

|----------------|----------------|----------------|----------------|
|----------------|----------------|----------------|----------------|
|----------------|----------------|----------------|5-----------5-3-|
|--0-0-0-----0---|--0-0-0-0-0-----|--0-0-0---0---0-|--0-0-0-0-0-----|

|----------------|----------------|----------------|----------------|
|----------------|----------------|----------------|----------------|
|5-------1-1---3-|5-----------5-3-|5-------1~~~3~~~|5--3--1~~~~~~~5~|
|--0-0-0-----0---|--0-0-0-0-0-----|--0-0-0---------|----------------|

|----------------|
|----------------|
|~~~/------------|
|----------------|
            
Submit corrections


        This Calling lessons Hard to play? Try these video lessons and learn fast This Calling lessons
        
↑ Back to top | Tablatures and chords for acoustic guitar and electric guitar, ukulele, drums are parodies/interpretations of the original songs. You may use it for private study, scholarship, research or language learning purposes only