» » »

All That Remains - This Calling Bass

Artists:  A B C D E F G H I J K L M N O P Q R S T U V W X Y Z # 

This Calling Bass

(ver. 1) Click to play this song!
All That Remains
 Rating:
4/5 (4 votes)

 This Calling lessons Tabs too difficult? Try these video lessons and learn fast
 
                I saw that there were no tabs for this song on bass so I figured I should tab it out I 

Tuning (DADG)

Intro
G---------------3----------------------------------3------------------------|
D-----------------5----------------------------------5----------------------|
A-5-----------------5--------13----35------------------5--------1----3----5-|
D--000000000000-------000000----00----000000000000-------000000---00---00---|

Verse
G--------------3--------------------------------3-----------------------|
D----------------5--------------------------------5---------------------|
A------------------5-------13----35-----------------5-------1----3----5-|
D--0-0-0-0-0-0-------0-0-0----00----0-0-0-0-0-0-------0-0-0---00---00---|

G-------|
D-------|
A-5-3-1-|
D-------|

Chorus
G-------------------------------------------------------------------|
D-------------------------------------------------------------------|
A-1---3-----------12-10-----------------------------10-12--1---3----|
D--------00000000-------13-12-10--00000000-10-12-13-----------------|


Verse 2
G---------------3----------------------------------3------------------------|
D-----------------5----------------------------------5----------------------|
A-5-----------------5--------13----35------------------5--------1----3----5-|
D--000000000000-------000000----00----000000000000-------000000---00---00---|


G--------------3--------------------------------3-----------------------|
D----------------5--------------------------------5---------------------|
A------------------5-------13----35-----------------5-------1----3----5-|
D--0-0-0-0-0-0-------0-0-0----00----0-0-0-0-0-0-------0-0-0---00---00---|


G--------------3--------------------------------3----------------------|
D----------------5--------------------------------5--------------------|
A------------------5-------13----35-----------------5-------1----3-----|
D--0-0-0-0-0-0-------0-0-0----00----0-0-0-0-0-0-------0-0-0---00---00--|

Chorus 2
G----------------------------------------------------------|
D----------------------------------------------------------|
A-1---3-----------12-10-----------------------------10-12--|
D--------00000000-------13-12-10--00000000-10-12-13--------|


G----------------------------------------------------------|
D----------------------------------------------------------|
A-1---3-----------12-10-----------------------------10-12--|
D--------00000000-------13-12-10--00000000-10-12-13--------|

G---------|
D---------|
A-1---3---|
D---------|

Bridge
G-----------------------------|
D-----------------------------|
A-5-----5-----5-----5---------|
D---000---000---000---878---7-|

G--------------------------|
D--------------------------|
A--------------------------|
D-00000-0000-0-00000-000-0-|

Guitar Solo
G--------------------------------------------------|
D--------------------------------------------------|
A-1---3------------8-7-5--1---3--------------8-7-5-|
D-------0000000000----------------0000000000-------|

Final Chorus

G----------------------------------------------------------|
D----------------------------------------------------------|
A-1---3-----------12-10-----------------------------10-12--|
D--------00000000-------13-12-10--00000000-10-12-13--------|

G----------------------------------------------------------|
D----------------------------------------------------------|
A-1---3-----------12-10-----------------------------10-12--|
D--------00000000-------13-12-10--00000000-10-12-13--------|

G---------|
D---------|
A-1---3---|
D---------|

Outro
G--------------------------|
D--------------------------|
A--------------------------|
D-00000-0000-0-00000-000-0-|

G---------------3----------------------------------3----------------------|
D-----------------5----------------------------------5--------------------|
A-5-----------------5--------13----35------------------5--------1----3----|
D--000000000000-------000000----00----000000000000-------000000---00---00-|

G----------|
D----------|
A-5-3-1-5\-|
D----------|
            
Submit corrections


        This Calling lessons Hard to play? Try these video lessons and learn fast This Calling lessons
        
↑ Back to top | Tablatures and chords for acoustic guitar and electric guitar, ukulele, drums are parodies/interpretations of the original songs. You may use it for private study, scholarship, research or language learning purposes only