» » »

All That Remains - This Calling Bass

Artists:  A B C D E F G H I J K L M N O P Q R S T U V W X Y Z # 

This Calling Bass

(ver. 2) Click to play this song!
All That Remains
 Rating:
4/5 (4 votes)

 This Calling lessons Tabs too difficult? Try these video lessons and learn fast
 
                This Calling

Another tab written off of the master bass track. I noticed how the other tabs
weren't really right, so I just thought I'd set it straight. Keep in mind that
it's in Drop D. Enjoy!

Jeanne Sagan's Bass Track

-------------------------------------------------------------------------------
"This Calling"
All That Remains
The Fall of Ideals


Intro (picking is generally faster than the verses)
G|--------------------------------------------------------|
D|--------------------------------------------------------|
A|-5-------------------------5-3-5-------------5-3---3-5--|
D|---0-0-0-0-0-0-0-0-0-0-0-0-------0-0-0-0-0-0-----0------|

G|--------------------------------------------------|
D|--------------------------------------------------|
A|-------------------------5-3-5-------------5--3---|
D|-0-0-0-0-0-0-0-0-0-0-0-0-------0-0-0-0-0-0--------|

Verse 1 (Play x4)
G|---|-----------------------------------|
D|---|-----------------------------------|
A|-5-|-----------5-3-5-------1-1---3-5---|
D|---|-0-0-0-0-0-------000-00----0-------|

G|---------------------|
D|---------------------|
A|-5-3-0~----1~--------|
D|---------------------|

Chorus 1               |-3-|  |-3----------------------|
G|-----------------------------------------------------|
D|--------------2~------------------5h7-5-5------------|
A|-1--1-1-3~--3----3~--5-5-5~-5-5-5---------5-5-0-0----|
D|-----------------------------------------------------|
   |-3-|  |-3------------------------------------------|
G|-----------------------------------------------------|
D|--------------5h7-5-5--------------------------------|
A|-5-5-5~-5-5-5---------5-5-0-0-1~--1~-----------------|
D|-----------------------------------------------------|

G|----------------------|
D|--------------2~------|
A|-1--1-1-3~--3----3~---|
D|----------------------|

Verse 2A
G|-------------------------------------|
D|-------------------------------------|
A|-5-----------5-3-5-------5-3---3-5---|
D|---0-0-0-0-0-------0-0-0-----0-------|

G|------------------------------|
D|------------------------------|
A|-----------5-3-5-------5--3---|
D|-0-0-0-0-0-------0-0-0--------|

Verse 2B (Play x2)
G|-------------------------------------|
D|-------------------------------------|
A|-5-----------5-3-5-------1-1---3-5---|
D|---0-0-0-0-0-------000-0-----0-------|

G|--------------------------------|
D|--------------------------------|
A|-5-----------5-3-5-------1--3---|
D|---0-0-0-0-0-------000-0--------|

Chorus 2 (Play x2)     |-3-|  |-3----------------------|
G|-----------------------------------------------------|
D|--------------2~------------------5h7-5-5------------|
A|-1--1-1-3~--3----3~--5-5-5~-5-5-5---------5-5-0-0----|
D|-----------------------------------------------------|
   |-3-|  |-3------------------------------------------|
G|-----------------------------------------------------|
D|--------------5h7-5-5--------------------------------|
A|-5-5-5~-5-5-5---------5-5-0-0-1~--1~-----------------|
D|-----------------------------------------------------|

G|----------------------|
D|--------------2~------|
A|-1--1-1-3~--3----3~---|
D|----------------------|

Bridge A (Play x2)
G|-------------------------------------------|
D|-------------------------------------2-----|
A|-5-----5-----5-----5-3---1~---1-0~-----3---|
D|---0000--0000--0-0-----0-----------0-------|

G|-------------------------------------------|
D|-------------------------------------------|
A|-5-----5-----5-----5-3---1~---1-0~---------|
D|---0000--0000--0-0-----0-----------7-5-3---|

Bridge B (Play x2)
G|------------------------------------------------------|
D|------------------------------------------------------|
A|------------------------------------------------------|
D|-0-0-0-0-0----0-0-0----0----0-0-0-0-0----0-0-0----0---|

Bridge B End
G|---------------------------------------------------------|
D|---------------------------------------------------------|
A|---------------------------------------------------------|
D|-0--0-0-0-0-0----0-0-0----0----0-0-0-0-0----0-0-0----0---|

Solo Backing                         |-3-|
G|-----------------------------------------------------|
D|--------------------2~-------------------------------|
A|---1~--1--1-1-3~--3----3~---5-5-5--5-5-5-8~-7~--3~---|
D|-0---------------------------------------------------|

G|--------------------------------------------|
D|------------------2~------------------------|
A|-1~--1--1-1-3~--3----3~--5-5-5~---5--7--8---|
D|--------------------------------------------|

Chorus 3 (Play x2)     |-3-|  |-3----------------------|
G|-----------------------------------------------------|
D|--------------2~------------------5h7-5-5------------|
A|-1--1-1-3~--3----3~--5-5-5~-5-5-5---------5-5-0-0----|
D|-----------------------------------------------------|
   |-3-|  |-3------------------------------------------|
G|-----------------------------------------------------|
D|--------------5h7-5-5--------------------------------|
A|-5-5-5~-5-5-5---------5-5-0-0-1~--1~-----------------|
D|-----------------------------------------------------|

G|----------------------|
D|--------------2~------|
A|-1--1-1-3~--3----3~---|
D|----------------------|

Outro
G|--------------------------------------------------------|
D|--------------------------------------------------------|
A|-5------------------------------------------------------|
D|---0-0-0-0-0----0-0-0----0----0-0-0-0-0----0-0-0----0---|

G|---------------------------------------------------------|
D|---------------------------------------------------------|
A|---------------------------------------------------------|
D|-0--0-0-0-0-0----0-0-0----0----0-0-0-0-0----0-0-0----0---|

G|---------------------------------------|
D|---------------------------------------|
A|---5-----------5-3-5-------1-1---3-5---|
D|-0---0-0-0-0-0-------0-0-0-----0-------|

G|----------------------------------------------|
D|----------------------------------------------|
A|------------5-3-5-------1~--3~--5-3-0~---/5---|
D|--0-0-0-0-0-------0-0-0-----------------------|

Key Legend
==========
/# - Slide from fret indicated
#h# - Hammer-on/Pull-off to/from frets indicated
#~ - Let note ring
            
Submit corrections


        This Calling lessons Hard to play? Try these video lessons and learn fast This Calling lessons
        
↑ Back to top | Tablatures and chords for acoustic guitar and electric guitar, ukulele, drums are parodies/interpretations of the original songs. You may use it for private study, scholarship, research or language learning purposes only