» » »

All That Remains - This Calling Tabs

Artists:  A B C D E F G H I J K L M N O P Q R S T U V W X Y Z # 

This Calling Tabs

(ver. 1) Click to play this song!
All That Remains
 Rating:
4/5 (4 votes)

 This Calling lessons Tabs too difficult? Try these video lessons and learn fast
 
                All That Remains - This Calling


I noticed that there was no tab for this
awesome new song, so I decided to attempt it.
This is my first tab, but I think I did this pretty accurately...

Intro:
(Both guitars play same thing)

E----------------------------------------------------------------------------------------------|
B----------------------------------------------------------------------------------------------|
G--7-------------------------------------------------7-----------------------------------------|
D--7--0-0-0-0-0-0-0-0-0-0-0-0-0-0-0-0-0-0-0----------7--0-0-0-0-0-0-0-0-0-0-0------------------|
A--5--0-0-0-0-0-0-0-0-0-0-0-0-0-0-0-0-0-0-0---8--3---5--0-0-0-0-0-0-0-0-0-0-0---1--3--0-0-0--7-|
D-----0-0-0-0-0-0-0-0-0-0-0-0-0-0-0-0-0-0-0-------------0-0-0-0-0-0-0-0-0-0-0------------------|
      . . . . . . . . . . . . . . . . . . .             . . . . . . . . . . .         . . .
                                                                                     triplet

E---------------------------------------------------------------------------------------|
B---------------------------------------------------------------------------------------|
G--7-------------------------------------------------7--------------------------3-----5-|
D--7--0-0-0-0-0-0-0-0-0-0-0-0-0-0-0-0-0-0-0----------7--0-0-0-0-0-0-0-0-0-0-0---3-----5-|
A--5--0-0-0-0-0-0-0-0-0-0-0-0-0-0-0-0-0-0-0---8--3---5--0-0-0-0-0-0-0-0-0-0-0---1-----3-|
D-----0-0-0-0-0-0-0-0-0-0-0-0-0-0-0-0-0-0-0-------------0-0-0-0-0-0-0-0-0-0-0-----------|
      . . . . . . . . . . . . . . . . . . .             . . . . . . . . . . .


Verse 1 (twice):
(Both guitars play same thing)

E---------------------------------------------------------------------------------|
B---------------------------------------------------------------------------------|
G--7---------------------------------------------7--------------------------------|
D--7--0-0-0--0-0-0--0-0-0--0-0-0--0-0-0----------7--0-0-0-0--0-0------------------|
A--5--0-0-0--0-0-0--0-0-0--0-0-0--0-0-0---8--3---5--0-0-0-0--0-0---1--3--0-0-0--7-|
D-----0-0-0--0-0-0--0-0-0--0-0-0--0-0-0-------------0-0-0-0--0-0------------------|
      . . .  . . .  . . .  . . .  . . .             . . . .  . .         . . .
     |------------triplets-------------|                                triplet


E--------------------------------------------------------------------------|
B--------------------------------------------------------------------------|
G--7---------------------------------------------7-----------------3-----5-|
D--7--0-0-0--0-0-0--0-0-0--0-0-0--0-0-0----------7--0-0-0-0--0-0---3-----5-|
A--5--0-0-0--0-0-0--0-0-0--0-0-0--0-0-0---8--3---5--0-0-0-0--0-0---1-----3-|
D-----0-0-0--0-0-0--0-0-0--0-0-0--0-0-0-------------0-0-0-0--0-0-----------|
      . . .  . . .  . . .  . . .  . . .             . . . .  . .
     |------------triplets-------------|


Pre-chorus:

(Guitar 1)
E-------------|
B-------------|
G--7---5---3--|
D--7---5---3--|
A--5---3---1--|
D-------------|

(Guitar 2)
E-------------|
B-------------|
G--7---5---7--|
D--7---5---7--|
A--5---3---5--|
D-------------|


Chorus 1:

(Guitar 1)
E------------------------------------------|--------------------|
B------------------------------------------|--------------------|
G--3--------5--------7--------9-----10-----|--3--------5--------|
D--3--------5--------7---------------------|--3--------5--------|
A--1--------3--------5--------7-----8------|--1--------3--------|
D------------------------------------------|--------------------|
                             |--strum--|
(Guitar 2)
E------------------------------------------|--------------------|
B------------------------------------------|--------------------|
G--3--------5--------7--------7------------|--3--------5--------|
D--3--------5--------7--------7------------|--3--------5--------|
A--1--------3--------5--------5------------|--1--------3--------|
D------------------------------------------|--------------------|


Verse 2 (three times)
(Both guitars play same thing)

E----------------------------------------------------------------------------------------|
B----------------------------------------------------------------------------------------|
G--7---------------------------------------------7---------------------------------------|
D--7--0-0-0--0-0-0--0-0-0--0-0-0--0-0-0----------7--0-0-0--0-0-0--0-0-0------------------|
A--5--0-0-0--0-0-0--0-0-0--0-0-0--0-0-0---8--3---5--0-0-0--0-0-0--0-0-0---1--3--0-0-0--7-|
D-----0-0-0--0-0-0--0-0-0--0-0-0--0-0-0-------------0-0-0--0-0-0--0-0-0------------------|
      . . .  . . .  . . .  . . .  . . .             . . .  . . .  . . .         . . .
     |------------triplets-------------|                                       triplet


E---------------------------------------------------------------------------------|
B---------------------------------------------------------------------------------|
G--7---------------------------------------------7------------------------3-----5-|
D--7--0-0-0--0-0-0--0-0-0--0-0-0--0-0-0----------7--0-0-0--0-0-0--0-0-0---3-----5-|
A--5--0-0-0--0-0-0--0-0-0--0-0-0--0-0-0---8--3---5--0-0-0--0-0-0--0-0-0---1-----3-|
D-----0-0-0--0-0-0--0-0-0--0-0-0--0-0-0-------------0-0-0--0-0-0--0-0-0-----------|
      . . .  . . .  . . .  . . .  . . .             . . .  . . .  . . .


Chorus 2:

(Guitar 1)
E------------------------------------------|----------------------------------|
B------------------------------------------|----------------------------------|
G--3--------5--------7--------9-----10-----|--3--------5--------7----9-----10-|
D--3--------5--------7---------------------|--3--------5--------7-------------|
A--1--------3--------5--------7-----8------|--1--------3--------5----7-----8--|
D------------------------------------------|----------------------------------|
                             |--strum--|
E-------------|
B-------------|
G--3--------5-|
D--3--------5-|
A--1--------3-|
D-------------|

(Guitar 2)
E------------------------------------------|-----------------------------|
B------------------------------------------|-----------------------------|
G--3--------5--------7--------7------------|--3--------5--------7------7-|
D--3--------5--------7--------7------------|--3--------5--------7------7-|
A--1--------3--------5--------5------------|--1--------3--------5------5-|
D------------------------------------------|-----------------------------|

E-------------|
B-------------|
G--3--------5-|
D--3--------5-|
A--1--------3-|
D-------------|

Bridge Part 1:

(Guitar 1) - play twice
E----------------------------------------------------------------------|
B----------------------------------------------------------------------|
G--7-----------7-------------------------------------------------------|
D--7--0-0-0-0--7--0-0-0-0----------------------------------------------|
A--5--0-0-0-0--5--0-0-0-0---8--7h8p7--5--7--5--3---1-----------0-------|
D-----0-0-0-0-----0-0-0-0----------------------------------------------|
      . . . .     . . . .

(Guitar 2) -
E-------------------------------------------------------------------------|
B-------------------------------------------------------------------------|
G-------------------------------------------------------------------------|
D--------------------------------------------7---8-7-5-----7--------------|
A------------------------------------------5---5---------5---5------0-1-3-|
D-------------------------------------------------------------2-3-5-------|
                                                              . . . . . .

E----------------------------------------------------------------------------|
B----------------------------------------------------------------------------|
G----------------------------------------------------------------------------|
D----------------------------------------------------7---8-7-5-----7---5-----|
A--------------------------------------------------5---5---------5---5---8-7-|
D----------------------------------------------------------------------------|

Bridge Part 2:

(Guitar 1) - play twice
E-------------------------------------------------------------------------|
B-------------------------------------------------------------------------|
G--7-----------7----------------------------------------------------------|
D--7--0-0-0-0--7--0-0-0-0-------------------------------------------------|
A--5--0-0-0-0--5--0-0-0-0---8--7h8p7--5--8--5--3---1-----------0----------|
D-----0-0-0-0-----0-0-0-0-------------------------------------------------|
      . . . .     . . . .


(Guitar 2) -
E-----------------------------------------------------------------------------|
B-----------------------------------------------------------------------------|
G-----------------------------------------------------------------------------|
D----------------------7--5h7p5--3--5--3--2------7---8-7-5----7---------------|
A----------------------------------------------5---5--------5---5-------0-1-3-|
D-----------------------------------------------------------------2-3-5-------|
                                                                  . . . . . .

E----------------------------------------------------------------------------|
B----------------------------------------------------------------------------|
G----------------------------------------------------------------------------|
D---------------------------7--5h7p5--3--5--3--2------7---8-7-5----7---5-----|
A---------------------------------------------------5---5--------5---5---8-7-|
D----------------------------------------------------------------------------|


Pre-Breakdown:

(Guitar 1) - play twice

E----------------------------------------------------------------------------|
B----------------------------------------------------------------------------|
G----------------------------------------------------------------------------|
D-----0-0-0--0-0-0--0-0-0--0-0-0--0-0-0------0-0-0--0-0-0--0-0-0-------0-0-0-|
A-----0-0-0--0-0-0--0-0-0--0-0-0--0-0-0------0-0-0--0-0-0--0-0-0-------0-0-0-|
D-----0-0-0--0-0-0--0-0-0--0-0-0--0-0-0------0-0-0--0-0-0--0-0-0-------0-0-0-|
      . . .  . . .  . . .  . . .  . . .      . . .  . . .  . . .       . . .
     |---------------------------------triplets----------------------------|

(Guitar 2) - let chords ring
E--------------------------------------------------------------------|
B--------------------------------------------------------------------|
G--9---------------------7------------------5--------------------3---|
D--------------------------------------------------------------------|
A--7---------------------5------------------3--------------------1---|
D--------------------------------------------------------------------|

E--------------------------------------------------------------------|
B--------------------------------------------------------------------|
G--9----------------------------------------10-------------------7*--|
D--------------------------------------------------------------------|
A--7----------------------------------------8--------------------5*--|
D--------------------------------------------------------------------|
				 *Hold this note out, even during breakdown,
				  but let it fade away.


Breakdown:

Guitar 1 -

E---------------------------------------------------------------------------|
B---------------------------------------------------------------------------|
G---------------------------------------------------------------------------|
D--0-0-0--0-0-0--0-0-0--0-0-0--0-0-0------0-0-0--0-0-0--0-0-0---------0-0-0-|
A--0-0-0--0-0-0--0-0-0--0-0-0--0-0-0------0-0-0--0-0-0--0-0-0---------0-0-0-|
D--0-0-0--0-0-0--0-0-0--0-0-0--0-0-0------0-0-0--0-0-0--0-0-0---------0-0-0-|
   . . .  . . .  . . .  . . .  . . .      . . .  . . .  . . .         . . .
  |---------------------------------triplets------------------------------|

E---------------------------------------------------------------------|
B---------------------------------------------------------------------|
G---------------------------------------------------------------------|
D--0-0-0--0-0-0--0-0-0--0-0-0--0-0-0------0-0-0--0-0-0--0-0-0---0-0-0-|
A--0-0-0--0-0-0--0-0-0--0-0-0--0-0-0------0-0-0--0-0-0--0-0-0---0-0-0-|
D--0-0-0--0-0-0--0-0-0--0-0-0--0-0-0------0-0-0--0-0-0--0-0-0---0-0-0-|
   . . .  . . .  . . .  . . .  . . .      . . .  . . .  . . .   . . .
  |---------------------------------triplets-------------------------|

E---------------------------------------------------------------------------|
B---------------------------------------------------------------------------|
G---------------------------------------------------------------------------|
D--0-0-0--0-0-0--0-0-0--0-0-0--0-0-0------0-0-0--0-0-0--0-0-0---------0-0-0-|
A--0-0-0--0-0-0--0-0-0--0-0-0--0-0-0------0-0-0--0-0-0--0-0-0---------0-0-0-|
D--0-0-0--0-0-0--0-0-0--0-0-0--0-0-0------0-0-0--0-0-0--0-0-0---------0-0-0-|
   . . .  . . .  . . .  . . .  . . .      . . .  . . .  . . .         . . .
   |---------------------------------triplets-----------------------------|

E----------------------------------------------------------------------------|
B----------------------------------------------------------------------------|
G----------------------------------------------------------------------------|
D--0-0-0--0-0-0--0-0-0--0-0-0--0-0-0------0-0-0--0-0-0--0-0-0---0-0-0--0-0-0-|
A--0-0-0--0-0-0--0-0-0--0-0-0--0-0-0------0-0-0--0-0-0--0-0-0---0-0-0--0-0-0-|
D--0-0-0--0-0-0--0-0-0--0-0-0--0-0-0------0-0-0--0-0-0--0-0-0---0-0-0--0-0-0-|
      . . .  . . .  . . .  . . .  . . .      . . .  . . .  . . .   . . .
     |---------------------------------triplets----------------------------|

Solo:

Guitar 1 plays chorus.

Guitar 2 - I haven't figured out the whole solo, but here's the beginning:

E-------------------------|
B-------------------------|
G--9--10--12-----14s10----|  Yeah...I wasn't really motivated
D-------------------------|  to figure out the solo,
A-------------------------|  so good luck with that part.
D-------------------------|


Chorus:

Play "Chorus 2" again.

Last verse:

Play verse 2 again.

Outro:

Play the Pre-Chorus.

Well, that's it...I think I hit pretty much everything
except for the solo and the pinch harmonics during
the breakdown, sorry.  Um, everything else was
pretty accurate, but it's possible that I missed something.
            
Submit corrections


        This Calling lessons Hard to play? Try these video lessons and learn fast This Calling lessons
        
↑ Back to top | Tablatures and chords for acoustic guitar and electric guitar, ukulele, drums are parodies/interpretations of the original songs. You may use it for private study, scholarship, research or language learning purposes only