» » »

You Me At Six, Gossip Tabs (ver.3)

Artists:  A B C D E F G H I J K L M N O P Q R S T U V W X Y Z # 

Gossip Tabs (ver.3)

You Me At Six Tabs
Rating:
5/5 (1 vote)
Hard to play? Try these video lessons and learn fast.
                Gossip
You Me At Six

Ok well none of the other versions are complete, or they don't seem right, so ive 
come up with this. I don't think its perfect, its just very hard to hear whats going on. 
I'm seeing them play on saturday tho, so I can update it if I know then what they are doing!

Any questions just comment!
and don't forget to rate please!! :D
Thanks


##Intro Riff##
[00:05 > 00:48]

Guitar 1

|-----------------------|
|-----------------------|
|-----------------------|
|2---2-4---2--2--2-4-2-4|  x2--
|2---2-4---2--2--2-4-2-4|      |
|2---2-4---2--2--2-4-2-4|      |
                               x4
|-----------------------|      |
|-----------------------|      |
|-----------------------|  x2--
|0---0-2---0--0--0-2-0-2|
|0---0-2---0--0--0-2-0-2|
|0---0-2---0--0--0-2-0-2|

Guitar 2 (come in on 2nd)

|-----------------------|
|-----------------------|
|-----------------------|
|-----------------------|  x2--
|7---7h9---7--7--7h9~---|      |
|-----------------------|      |
                               x2
|-----------------------|      |
|-----------------------|      |
|-----------------------|  x2--
|-----------------------|  
|5---5h7---5--5--5s7~---|
|-----------------------|

(2nd guitar riff for guitar 2)

|-------------------------|
|-------------------------|
|9---9-11--9--9--9-11-9-11|
|x---x-x---x--x--x-x--x-x-| x2
|7---7-9---7--7--7-9--7-9-|
|-------------------------|

|-----------------------|
|-----------------------|
|7---7-9---7--7--7-9-7-9|
|x---x-x---x--x--x-x-x-x| x2
|5---5-7---5--5--5-7-5-7|
|-----------------------|

##Chorus## x4
[00:49 > 01:10]

Guitar 1

|---------12---------------12-----|
|9---10--------10-9---10--------10|
|---------------------------------|
|---------------------------------|
|---------------------------------|
|---------------------------------|

Guitar 2

|-------------------------------------------------------------------------------|
|-------------------------------------15-15-15-15--15---15-17---17-17-14---14-14|
|---------------9---9-9-11---11-11----x--x--x--x---x----x--x----x--x--x----x--x-|
|2---2---2-2----x---x-x-x----x--x-----12-12-12-12--12---12-14---14-14-11---11-11|
|2---2---2-2----7---7-7-9----9--9-----0--0--0--0---0----0--0----0--0--0----0--0-|
|2---2---2-2--------------------------0--0--0--0---0----0--0----0--0--0----0--0-|

##Verse 2## x3
[01:11 > 01:43]
(guitar 2 play the 2nd guitar riff)

##Chorus## x4
[01:44 > 02:05]

##Bridge##
[02:06 > 02:25]

Guitar 1

|--------------|
|--------------|
|--------------|
|2-----x-4----0|  x4
|2-----x-4----0|
|2-----x-4----0|

Gutiar 2
                                                            pm . . . . . . . . .
|-------------------------------------------------------------------------------|
|3s5~----------------------------3s5~---------2---2---2h3p2p0--2-3-5-3-2-3-2----|
|--------x-1---2~----1h2p1h2s4~----------x-1---------------------------------4-2|
|-------------------------------------------------------------------------------|
|-------------------------------------------------------------------------------|
|-------------------------------------------------------------------------------|

|-----------------------------------------------|
|3s5~----------------------------3s5~-----------|
|--------x-1---2~----1h2p1h2s4~----------x-1---2|
|----------------------------------------------x|
|----------------------------------------------0|
|-----------------------------------------------|

##Chorus## x4
[02:28 > 02:49]

##Intro## 
[02:50 > end]
            

comments powered by Disqus
↑ Back to top | You Me At Six Tabs for Gossip. Lyrics for acoustic guitar and electric guitar. Tablatures and chords are parodies/interpretations of the original songs. You may use it for private study, scholarship, research or language learning purposes only