» » »

You Me At Six, Gossip Tabs (ver.1)

Artists:  A B C D E F G H I J K L M N O P Q R S T U V W X Y Z # 

Gossip Tabs (ver.1)

You Me At Six Tabs
 Rating:
4.6/5 (9 votes)
Gossip lessons Tabs too difficult? Try these video lessons and learn fast
                -------------------------------------------------------------------------------
-------------------------------------------------------------------------------

Tuning: Drop D

Intro/Verse/outro - Rhythm Guitar

e|------------------------------------------------------------------------------------------------|
B|------------------------------------------------------------------------------------------------|
G|------------------------------------------------------------------------------------------------|
D|--2--2-4--2--2--2-4-2-4--2--2-4--2--2--2-4-2-4--0--0-2--0--0--0-2-0-2--0--0-2--0--0--0-2-0-2----|
A|--2--2-4--2--2--2-4-2-4--2--2-4--2--2--2-4-2-4--0--0-2--0--0--0-2-0-2--0--0-2--0--0--0-2-0-2----|
D|--2--2-4--2--2--2-4-2-4--2--2-4--2--2--2-4-2-4--0--0-2--0--0--0-2-0-2--0--0-2--0--0--0-2-0-2----|

Intro/Verse - Lead Guitar

e|-------------------------------------------------------------------------------------------------|
B|-------------------------------------------------------------------------------------------------|
G|--9--9/11-9--9--9/11-9/11-9--9/11-9--9--9/11-9/11-7--7/9--7--7--7-9--7/9--7--7/9--7--7--7/9--7/9-|
D|--x--x/x--x--x--x/x--x/x--x--x/x--x--x--x/x--x/x--x--x/x--x--x--x/x--x/x--x--x/x--x--x--x/x--x/x-|
A|--7--7/9--7--7--7/9--7/9--7--7/9--7--7--7/9--7/9--5--5/7--5--5--5/7--5/7--5--5/7--5--5--5/7--5/7-|
D|-------------------------------------------------------------------------------------------------|

Chrous - Rhythm Guitar
e|----------------------------------------------------------------------------|
b|----------------------------------------------------------------------------|
g|----------------------------------------------------------------------------|
d|-22222222-44444444--7777777777777777---22222222-44444444-0000000000000000---|  x2
a|-22222222-44444444--7777777777777777---22222222-44444444-0000000000000000---|
D|-22222222-44444444--7777777777777777---22222222-44444444-0000000000000000---|

Chrous - Lead Guitar
e|------------------------------------------------------|                        
b|------------------------------------------------------|                            
g|-9--11--16--18--21--18-------14--13--16--18--21--18---|  
d|-x---x---x---x---x---x--------x---x---x---x---x---x---|
a|-7---9--14--16--19--16-------12--11--14--16--19--16---|   
D|------------------------------------------------------|                              

Interlude

e|--------|
b|--------|
g|--------|
d|-2-4-0~-|
a|-2-4-0~-|
D|-2-4-0--|

Outro - Rhythm Guitar

e|------------------------------------------------------------------------------------------------|
B|------------------------------------------------------------------------------------------------|
G|------------------------------------------------------------------------------------------------|
D|--2--2-4--2--2--2-4-2-4--2--2-4--2--2--2-4-2-4--0--0-2--0--0--0-2-0-2--0--0-2--0--0--0-2-0-2-222|
A|--2--2-4--2--2--2-4-2-4--2--2-4--2--2--2-4-2-4--0--0-2--0--0--0-2-0-2--0--0-2--0--0--0-2-0-2-222|
D|--2--2-4--2--2--2-4-2-4--2--2-4--2--2--2-4-2-4--0--0-2--0--0--0-2-0-2--0--0-2--0--0--0-2-0-2-222|


| /  slide up
| \  slide down
| h  hammer-on
| p  pull-off
| ~  vibrato
| +  harmonic
| x  Mute note
===============================================================================
            
Submit corrections

comments powered by Disqus
↑ Back to top | You Me At Six Tabs for Gossip. Lyrics for acoustic guitar and electric guitar. Tablatures and chords are parodies/interpretations of the original songs. You may use it for private study, scholarship, research or language learning purposes only