>
 >
Gossip 1

Gossip 1 Guitar Tabs

You Me At Six - Gossip 1 chords, tabs, tablatures, lyrics

Guitar lessons | Add/correct | Request | Top 50 tabs Artists:  A B C D E F G H I J K L M N O P Q R S T U V W X Y Z 0-9

Gossip 1 Guitar Tabs – You Me At Six

CD, Sheet music, Poster

Do you like Gossip 1? Share with your friends now
Bass TabsTabsTabs v2Tabs v3
Bear in mind this is my first tab, so be honest, but not too honest. Im fairly sure the 
is wrong for rhythm, so any suggestions at all will be much appreciated. But the rest 
pretty confident in. Enjoy this tab, cos YoumeatSix rule.

Tuning : Drop D

Into / all of verse for rhythm

e|-------------------------------------------------|
b|-------------------------------------------------|
g|-------------------------------------------------|
d|-7-7-9--77--7-9-7-9-------5-5-7--55--5-7-5-7-----|
a|-7-7-9--77--7-9-7-9x2----5-5-7--55--5-7-5-7-x2--|
e|-7-7-9--77--7-9-7-9-------5-5-7--55--5-7-5-7-----|

When drums kick in, lead switches to...

e|--------------------------------------------------------|
b|--------------------------------------------------------|
g|-9-9-11--99-9/11-9/11---------7-7-9---77-7/9--7/9-----|
d|-x-x-x---xx x/x x/x---x2-----x-x-x---xx-x/x--x/x---x2|
a|-7-7-9---77 7/9 7/9----------5-5-7---55-5/7--5/7-----|
e|--------------------------------------------------------|


Chorus

Rhythm
e|----------------------------------------------------------------------------|
b|----------------------------------------------------------------------------|
g|----------------------------------------------------------------------------|
d|-22222222-44444444--77777777-9999-7777---22222222-44444444-7777777777777777-|  x2
a|-22222222-44444444--77777777-9999-7777---22222222-44444444-7777777777777777-|
e|-22222222-44444444--77777777-9999-7777---22222222-44444444-7777777777777777-|


Lead
e|------------------------------------------------------|
b|------------------------------------------------------|
g|-9--11--16--18--21--18-------14--13--16--18--21--18---|               Its easy once you listen
d|-x---x---x---x---x---x--------x---x---x---x---x---x---|   and figure out the strum
a|-7---9--14--16--19--16-------12--11--14--16--19--16---|   pattern.
e|------------------------------------------------------|


Play verse and chorus again through once.


Interlude - lead does something that I cant figure out in background, so heres the rhythm.

e|-------------------------------------------------|
b|-------------------------------------------------|
g|-------------------------------------------------|
d|-7-x9-2~-----------------------------------------|
a|-7-x9-2~--x3---On the last time cut the 2 short--|
e|-7-x9-2~-----------------------------------------|


Repeat chorus then go into first bit of intro, end on

d|-5-|
a|-5-|
e|-5-|


Once again, any suggestions would be awesome.





Comments


Popular You Me At Six tabs & chords
Stay With Me 2 Bass Tabs
Cold Night Chords
Hard To Swallow Chords
The Truth Is A Terrible Thing Chords
If I Were In Your Shoes Tabs
This Is The Frist Thing Tabs
Trophy Eyes Tabs
Underdog Tabs
Nasty Habits Ukulele
Save It For The Bedroom 2 Ukulele


Song lyrics



↑ Back to top | Tablatures and chords are parodies/interpretations of the original songs. You may use it for private study, scholarship, research or language learning purposes only
© 2014 AZChords.com Contact us | Privacy policy | DMCA | Add/correct tabs | Request tabs | Top 50 tabs