>
 >
Breathing Live

Breathing Live Guitar Tabs

Yellowcard - Breathing Live chords, tabs, tablatures, lyrics

Guitar lessons | Add/correct | Request | Top 50 tabs Artists:  A B C D E F G H I J K L M N O P Q R S T U V W X Y Z 0-9

Breathing Live Guitar Tabs – Yellowcard

CD, Sheet music, Poster

Do you like Breathing Live? Share with your friends now
Tabs
Band ~ Yellowcard
CD ~ Ocean Avenue
Song ~ Breathing (live)
Guitar 1 ~ Ben Harper
Guitar 2 ~ Ryan Key
Drop D tuning

Ok heres the deal i looked everywhere for a real good tab of this, and some of you guys
crazy giving a 5 star rating on those cause they truly suck, so i have yellowcards live
so i decide to go and try to tab it my self, and im no its million times more accurate 
those other tabs, so here it is!

Guitar 1

Intro: (doesnt play)

Intro:
E|--------------------------------------------------------------|
B|--------------------------------------------------------------|
G|--------------------------------------------------------------|
D|-5----5--5-5--5-5-5-5-5-5-5-5--5-5---5--5-5-5-5-5-5-5-5-5-5-5-|
A|-2--0-3--3-x--x-x-x-x-x-x-x-x--2-2-0-3--x-x-x-x-x-x-x-x-x-x-x-|
D|-2--0------4--4-5-5-5-5-5-4-4--2-2-0----4-4-4-5-5-5-4-5-5-5-5-|

Intro cont.
E|---------------------------------------------------------|
B|---------------------------------------------------------|
G|---------------------------2-4-4/5-4--2------------------|
D|---4--4/5----5/4----4-5------------------4--4/5----5-4-5-|
A|---------------------------------------------------------|
D|-4-------------------------------------------------------|

Verse:
E|----------------------------------------------------|
B|----------------------------------------------------|
G|-----5-----5----------------------------------------|
D|-5-5-5-----5--------------------------------------5-|
A|-3-3-3-----3--0-0-0----0--2-2-2----2--2-2-2-5-5-5-2-|
D|-*-*----------0-0-0----0--2-2-2----2--2-2-2-5-5-5---|
                * * *       * *           * *   * *

E|---------------------------------------------------|
B|---------------------------------------------------|
G|-----5----5------5----5------2----2------2---------|
D|-5-5-5----5------5----5------2----2------2-------5-|
A|-3-3-3----3--2-2-2----2--0-0-0----0--0-0-0-0-2-2-2-|
D|-*-*---------*-*---------*-*---------*-*---*-*-*---|

E|-------------------------------------------------------------|
B|-------------------------------------------------------------|
G|------------------------------------------------------4----2-|
D|-----5-------5-----------------------------------5-5-5-------|
A|-3-3-3-3-3-3-3-3-----0-------0-------2-------2---------------|
D|-*-*---*-*-*-----0-0-0-0-0-0-0-0-2-2-2-2-2-2-2-2-------------|
                   * *   * * *     * *   * * *   *

E|----------------------------------------------------|
B|----------------------------------------------------|
G|-------------------------------0-4-4-4-4-4-4--------|
D|-----5-------5-------------------------------5-4--2-|
A|-3-3-3-3-3-3-3-3-----0-------0----------------------|
D|-*-*---*-*-*-----0-0-0-0-0-0-0----------------------|
                   * *   * * *

Chorus: x2
E|------------------------------------------------------------------|
B|------------------------------------------------------------------|
G|------------------------------------------------------------------|
D|-5-5-5-5-5-5-5-5-4-4-4-4-4-4-4-4-5-5---5-5-5-4-4--5-5---5-5-5-4-4-|
A|-3-3-3-3-3-3-3-3-0-0-0-0-0-0-0-0-5-5---5-5-5-0-0--5-5---5-5-5-0-0-|
D|-5-5-5-5-5-5-5-5-0-0-0-0-0-0-0-0-2-2---2-2-2-0-0--2-2---2-2-2-0-0-|

Intro:
E|---------------------------------------------------------|
B|---------------------------------------------------------|
G|---------------------------2-4-4/5-4--2------------------|
D|---4--4/5----5/4----4-5------------------4--4/5----5-4-5-|
A|---------------------------------------------------------|
D|-4-------------------------------------------------------|

E|----------------------------------------------------|
B|----------------------------------------------------|
G|-----5-----5----------------------------------------|
D|-5-5-5-----5--------------------------------------5-|
A|-3-3-3-----3--0-0-0----0--2-2-2----2--2-2-2-5-5-5-2-|
D|-*-*----------0-0-0----0--2-2-2----2--2-2-2-5-5-5---|
                * * *       * *           * *   * *

E|---------------------------------------------------|
B|---------------------------------------------------|
G|-----5----5------5----5------2----2------2---------|
D|-5-5-5----5------5----5------2----2------2-------5-|
A|-3-3-3----3--2-2-2----2--0-0-0----0--0-0-0-0-2-2-2-|
D|-*-*---------*-*---------*-*---------*-*---*-*-*---|

E|------------------------------------------------------------|
B|------------------------------------------------------------|
G|-0-0-0-0-0-0-0-0-0-0-0-0-0-0-0-0-0-0-0-0-0-0-0-------4----2-|
D|-5-5-5-5-5-5-5-5-7-7-7-7-7-7-7-7-9-9-9-9-9-9-9-4-5-4--------|
A|------------------------------------------------------------|
D|------------------------------------------------------------|

E|----------------------------------------------------|
B|----------------------------------------------------|
G|-0-0-0-0-0-0-0-0-0-0-0-0-0-0-0-0-4-4-4-4-4-4------2-|
D|-5-5-5-5-5-5-5-5-7-7-7-7-7-7-7-7-------------5-4----|
A|----------------------------------------------------|
D|----------------------------------------------------|

Chorus: x2
E|------------------------------------------------------------------|
B|------------------------------------------------------------------|
G|------------------------------------------------------------------|
D|-5-5-5-5-5-5-5-5-4-4-4-4-4-4-4-4-5-5---5-5-5-4-4--5-5---5-5-5-4-4-|
A|-3-3-3-3-3-3-3-3-0-0-0-0-0-0-0-0-5-5---5-5-5-0-0--5-5---5-5-5-0-0-|
D|-5-5-5-5-5-5-5-5-0-0-0-0-0-0-0-0-2-2---2-2-2-0-0--2-2---2-2-2-0-0-|

Interlude:
E|-------------------------------------------------------------------------|
B|-------------------------------------------------------------------------|
G|-5-5-5-5-5-5-5-5-7-7-7-7-7-7-7-7-9-9-9-9-9-9-9-9-12-12-12-12-12-12-12-12-|
D|-x-x-x-x-x-x-x-x-x-x-x-x-x-x-x-x-x-x-x-x-x-x-x-x-x--x--x--x--x--x--x--x--|
A|-3-3-3-3-3-3-3-3-5-5-5-5-5-5-5-5-7-7-7-7-7-7-7-7-10-10-10-10-10-10-10-10-|
D|-------------------------------------------------------------------------|

Chorus:
E|------------------------------------------------------------------|
B|------------------------------------------------------------------|
G|------------------------------------------------------------------|
D|-5-5-5-5-5-5-5-5-4-4-4-4-4-4-4-4-5-5---5-5-5-4-4--5-5---5-5-5-4-4-|
A|-3-3-3-3-3-3-3-3-0-0-0-0-0-0-0-0-5-5---5-5-5-0-0--5-5---5-5-5-0-0-|
D|-5-5-5-5-5-5-5-5-0-0-0-0-0-0-0-0-2-2---2-2-2-0-0--2-2---2-2-2-0-0-|

Interlude:
E|-------------------------------------------------------------------------|
B|-------------------------------------------------------------------------|
G|-9--9--9--9--9-9-7-7-7/9--9--9--9--9-9-7-7-7/9--9--9-9-9-7-7-9-9-9-9-9-9-|
D|-x--x--x--x--x-x-x-x-x-x--x--x--x--x-x-x-x-x-x--x--x-x-x-x-x-x-x-x-x-x-x-|
A|-7--7--7--7--7-7-5-5-5/7--7--7--7--7-7-5-5-5/7--7--7-7-7-5-5-7-7-7-7-7-7-|
D|-------------------------------------------------------------------------|

Intro:
E|--------------------------------------------------------------|
B|--------------------------------------------------------------|
G|--------------------------------------------------------------|
D|-5----5--5-5--5-5-5-5-5-5-5-5--5-5---5--5-5-5-5-5-5-5-5-5-5-5-|
A|-2--0-3--3-x--x-x-x-x-x-x-x-x--2-2-0-3--x-x-x-x-x-x-x-x-x-x-x-|
D|-2--0------4--4-5-5-5-5-5-4-4--2-2-0----4-4-4-5-5-5-4-5-5-5-5-|

Verse:
E|---------------------------------------------------------|
B|-5-5-5---5-5-7---7-7--7-7-7-8-8-8---8-8-8-8-8-8-12-3-3-3-|
G|-0-0-0---0-0-0---0-0--0-0-0-0-0-0---0-0-0-0-0-0-0--0-0-0-|
D|-x-x-x---x-x-x---x-x--x-x-x-x-x-x---x-x-x-x-x-x-x--x-x-x-|
A|-3-3-3---3-3-5---5-5--5-5-5-7-7-7---7-7-7-7-7-7-10-2-2-2-|
D|---------------------------------------------------------|

E|----------------------------------------------|
B|-5-5-5--5-5-3----3--3-3-3-3-1-1-1--1-1--1---3-|
G|-0-0-0--0-0-0----0--0-0-0-0-2-2-2--2-2--2---0-|
D|-x-x-x--x-x-x----x--x-x---------------------x-|
A|-3-3-3--3-3-2----2--2-2---------------------2-|
D|----------------------------------------------|

E|---------------------------------------------------------|
B|-5-5-5---5-5-7---7-7--7-7-7-8-8-8---8-8-8-8-8-8-12-3-3-3-|
G|-0-0-0---0-0-0---0-0--0-0-0-0-0-0---0-0-0-0-0-0-0--0-0-0-|
D|-x-x-x---x-x-x---x-x--x-x-x-x-x-x---x-x-x-x-x-x-x--x-x-x-|
A|-3-3-3---3-3-5---5-5--5-5-5-7-7-7---7-7-7-7-7-7-10-2-2-2-|
D|---------------------------------------------------------|

E|------------------------------|
B|-5--5-5--5-5-5--7-7---7-7-7-8-|
G|-0--0-0--0-0-0--0-0---0-0-0-0-|
D|-x--x-x--x-x-x--x-x---x-x-x-x-|
A|-3--3-3--3-3-5--5-5---5-5-5-7-|
D|------------------------------|

Chorus: x2
E|------------------------------------------------------------------|
B|------------------------------------------------------------------|
G|------------------------------------------------------------------|
D|-5-5-5-5-5-5-5-5-4-4-4-4-4-4-4-4-5-5---5-5-5-4-4--5-5---5-5-5-4-4-|
A|-3-3-3-3-3-3-3-3-0-0-0-0-0-0-0-0-5-5---5-5-5-0-0--5-5---5-5-5-0-0-|
D|-5-5-5-5-5-5-5-5-0-0-0-0-0-0-0-0-2-2---2-2-2-0-0--2-2---2-2-2-0-0-|

Interlude:
E|-------------------------------------------------------------------------|
B|-------------------------------------------------------------------------|
G|-5-5-5-5-5-5-5-5-7-7-7-7-7-7-7-7-9-9-9-9-9-9-9-9-12-12-12-12-12-12-12-12-|
D|-x-x-x-x-x-x-x-x-x-x-x-x-x-x-x-x-x-x-x-x-x-x-x-x-x--x--x--x--x--x--x--x--|
A|-3-3-3-3-3-3-3-3-5-5-5-5-5-5-5-5-7-7-7-7-7-7-7-7-10-10-10-10-10-10-10-10-|
D|-------------------------------------------------------------------------|

Chorus:
E|------------------------------------------------------------------|
B|------------------------------------------------------------------|
G|------------------------------------------------------------------|
D|-5-5-5-5-5-5-5-5-4-4-4-4-4-4-4-4-5-5---5-5-5-4-4--5-5---5-5-5-4-4-|
A|-3-3-3-3-3-3-3-3-0-0-0-0-0-0-0-0-5-5---5-5-5-0-0--5-5---5-5-5-0-0-|
D|-5-5-5-5-5-5-5-5-0-0-0-0-0-0-0-0-2-2---2-2-2-0-0--2-2---2-2-2-0-0-|


Guitar 2

Intro:
E|-----------------------------------------------------------------|
B|-----------------------------------------------------------------|
G|-----------------------------------------------------------------|
D|-----------------------------------------------------------------|
A|-----------------------------------------------------------------|
D|-2-2-2-10-10-10-4-4-4-5-5-5-5-5-4-4-2-2-2-10-10-10-4-4-4-5-5-5-5-|
   * * *  *  *  * * * * * * * * * * * * * *  *  *  * * * * * * * *

Intro:
E|--------------------------------------------------------------|
B|--------------------------------------------------------------|
G|--------------------------------------------------------------|
D|-5----5--5-5--5-5-5-5-5-5-5-5--5-5---5--5-5-5-5-5-5-5-5-5-5-5-|
A|-2--0-3--3-x--x-x-x-x-x-x-x-x--2-2-0-3--x-x-x-x-x-x-x-x-x-x-x-|
D|-2--0------4--4-5-5-5-5-5-4-4--2-2-0----4-4-4-5-5-5-4-5-5-5-5-|

Intro:
E|-------------------------------------------------------------------|
B|-------------------------------------------------------------------|
G|-------5-5-----------------------------5---------------------------|
D|---0---5-5-----------------------------5---------------------------|
A|-------3-3------0-0-----0-2-----5-0/2--3------0----0-2----2--5---2-|
D|-4--------------0-0-----0-2-----5-------------0----0-2----2--5---2-|

Verse: (guitar 1)

Verse:
E|-------------------------------------------------------|
B|-------------------------------------------------------|
G|------5------5-----------------------------------------|
D|-5-5--5-5-5--5-----------------------------------------|
A|-3-3--3-3-3--3-0-0--0-0-0--0-2-2--2-2-2--2-2-2--2-5--5-|
D|---------------0-0--0-0-0--0-2-2--2-2-2--2-2-2--2-5--4-|

E|-----------------------------------------------|
B|-----------------------------------------------|
G|------5------5---------------------------------|
D|-5-5--5-5-5--5---------------------------------|
A|-3-3--3-3-3--3-0-0--0-0-0--0-2-2--2-2-2--2-2-2-|
D|---------------0-0--0-0-0--0-2-2--2-2-2--2-2-2-|

Chorus: x2
E|------------------------------------------------------------------|
B|------------------------------------------------------------------|
G|------------------------------------------------------------------|
D|-5-5-5-5-5-5-5-5-4-4-4-4-4-4-4-4-5-5---5-5-5-4-4--5-5---5-5-5-4-4-|
A|-3-3-3-3-3-3-3-3-0-0-0-0-0-0-0-0-5-5---5-5-5-0-0--5-5---5-5-5-0-0-|
D|-5-5-5-5-5-5-5-5-0-0-0-0-0-0-0-0-2-2---2-2-2-0-0--2-2---2-2-2-0-0-|

Intro:
E|-------------------------------------------------------------------|
B|-------------------------------------------------------------------|
G|-------5-5-----------------------------5---------------------------|
D|---0---5-5-----------------------------5---------------------------|
A|-------3-3------0-0-----0-2-----5-0/2--3------0----0-2----2--5---2-|
D|-4--------------0-0-----0-2-----5-------------0----0-2----2--5---2-|

Verse: guitar 1

Verse:
E|-------------------------------------------------------|
B|-------------------------------------------------------|
G|------5------5-----------------------------------------|
D|-5-5--5-5-5--5-----------------------------------------|
A|-3-3--3-3-3--3-0-0--0-0-0--0-2-2--2-2-2--2-2-2--2-5--5-|
D|---------------0-0--0-0-0--0-2-2--2-2-2--2-2-2--2-5--4-|

E|-----------------------------------------------|
B|-----------------------------------------------|
G|------5------5---------------------------------|
D|-5-5--5-5-5--5---------------------------------|
A|-3-3--3-3-3--3-0-0--0-0-0--0-2-2--2-2-2--2-2-2-|
D|---------------0-0--0-0-0--0-2-2--2-2-2--2-2-2-|

Chorus: x2
E|------------------------------------------------------------------|
B|------------------------------------------------------------------|
G|------------------------------------------------------------------|
D|-5-5-5-5-5-5-5-5-4-4-4-4-4-4-4-4-5-5---5-5-5-4-4--5-5---5-5-5-4-4-|
A|-3-3-3-3-3-3-3-3-0-0-0-0-0-0-0-0-5-5---5-5-5-0-0--5-5---5-5-5-0-0-|
D|-5-5-5-5-5-5-5-5-0-0-0-0-0-0-0-0-2-2---2-2-2-0-0--2-2---2-2-2-0-0-|

Interlude:
E|-----------------------------------------------------------------|
B|-----------------------------------------------------------------|
G|-----------------------------------------------------------------|
D|-5-5-5-5-5-5-5-5-7-7-7-7-7-7-7-7---------------------------------|
A|-3-3-3-3-3-3-3-3-5-5-5-5-5-5-5-5-2-2-2-2-2-2-2-2-5-5-5-5-5-5-5-5-|
D|---------------------------------2-2-2-2-2-2-2-2-5-5-5-5-5-5-5-5-|

Chorus:
E|------------------------------------------------------------------|
B|------------------------------------------------------------------|
G|------------------------------------------------------------------|
D|-5-5-5-5-5-5-5-5-4-4-4-4-4-4-4-4-5-5---5-5-5-4-4--5-5---5-5-5-4-4-|
A|-3-3-3-3-3-3-3-3-0-0-0-0-0-0-0-0-5-5---5-5-5-0-0--5-5---5-5-5-0-0-|
D|-5-5-5-5-5-5-5-5-0-0-0-0-0-0-0-0-2-2---2-2-2-0-0--2-2---2-2-2-0-0-|

Interlude: (guitar 1)

Intro:
E|--------------------------------------------------------------|
B|--------------------------------------------------------------|
G|--------------------------------------------------------------|
D|-5----5--5-5--5-5-5-5-5-5-5-5--5-5---5--5-5-5-5-5-5-5-5-5-5-5-|
A|-2--0-3--3-x--x-x-x-x-x-x-x-x--2-2-0-3--x-x-x-x-x-x-x-x-x-x-x-|
D|-2--0------4--4-5-5-5-5-5-4-4--2-2-0----4-4-4-5-5-5-4-5-5-5-5-|

Verse: (guitar 1)

Chorus: x2
E|------------------------------------------------------------------|
B|------------------------------------------------------------------|
G|------------------------------------------------------------------|
D|-5-5-5-5-5-5-5-5-4-4-4-4-4-4-4-4-5-5---5-5-5-4-4--5-5---5-5-5-4-4-|
A|-3-3-3-3-3-3-3-3-0-0-0-0-0-0-0-0-5-5---5-5-5-0-0--5-5---5-5-5-0-0-|
D|-5-5-5-5-5-5-5-5-0-0-0-0-0-0-0-0-2-2---2-2-2-0-0--2-2---2-2-2-0-0-|

Interlude:
E|-----------------------------------------------------------------|
B|-----------------------------------------------------------------|
G|-----------------------------------------------------------------|
D|-5-5-5-5-5-5-5-5-7-7-7-7-7-7-7-7---------------------------------|
A|-3-3-3-3-3-3-3-3-5-5-5-5-5-5-5-5-2-2-2-2-2-2-2-2-5-5-5-5-5-5-5-5-|
D|---------------------------------2-2-2-2-2-2-2-2-5-5-5-5-5-5-5-5-|

Chorus:
E|------------------------------------------------------------------|
B|------------------------------------------------------------------|
G|------------------------------------------------------------------|
D|-5-5-5-5-5-5-5-5-4-4-4-4-4-4-4-4-5-5---5-5-5-4-4--5-5---5-5-5-4-4-|
A|-3-3-3-3-3-3-3-3-0-0-0-0-0-0-0-0-5-5---5-5-5-0-0--5-5---5-5-5-0-0-|
D|-5-5-5-5-5-5-5-5-0-0-0-0-0-0-0-0-2-2---2-2-2-0-0--2-2---2-2-2-0-0-|


Their you have it, should be pretty dang right, since it took me now three months to tab
out for all of you, well have fun playing it right for once lol





Comments


Popular Yellowcard tabs & chords
Lights And Sounds 2 Bass Tabs
Grey Chords
Light Up The Sky 1 Chords
Shrink The World Chords
One Year, Six Months 2 Tabs
Shadows And Regrets Tabs
Space Travel Tabs
Two Weeks From Twenty 4 Tabs
Always Summer Ukulele
Lights And Sounds Ukulele


Song lyrics



↑ Back to top | Tablatures and chords are parodies/interpretations of the original songs. You may use it for private study, scholarship, research or language learning purposes only
© 2014 AZChords.com Contact us | Privacy policy | DMCA | Add/correct tabs | Request tabs | Top 50 tabs