>
 >
Believe

Believe Guitar Tabs

Yellowcard - Believe chords, tabs, tablatures, lyrics

Guitar lessons | Add/correct | Request | Top 50 tabs Artists:  A B C D E F G H I J K L M N O P Q R S T U V W X Y Z 0-9

Believe Guitar Tabs – Yellowcard

CD, Sheet music, Poster

Do you like Believe? Share with your friends now
Bass TabsBass Tabs v2Bass Tabs v3ChordsChords v2Chords v3Chords v4TabsTabs v2Tabs v3Tabs v4Ukulele
Band: Yellowcard
Guitar 1: Ben Harper
Guitar 2: Ryan Key

Drop D

Guitar 1
--------

Intro:
E|----------------------------------|
B|----------------------------------|
G|-----------------22222222---------|
D|-77777777777777772222222222222222-|
A|-44444444555555550000000022222222-|
D|-44444444000000000000000022222222-|

Intro Cont.:
E|-----------------------------------------------------------------|
B|-----------------------------------------------------------------|
G|-141414141414141414141414141411116-6-6-6-6-6-6-6-4-4-4-4-4-4-4-4-|
D|--x-x-x-x-x-x-x-x-x-x-x-x-x-x-x-xx-x-x-x-x-x-x-x-x-x-x-x-x-x-x-x-|
A|-1212121212121212121212121212-9-94-4-4-4-4-4-4-4-2-2-2-2-2-2-2-2-|
D|-----------------------------------------------------------------|

Verse: x2 (UP Strokes)        x2 (Down Strokes)
E|-------------------------|--------------------------|
B|-------------------------|--------------------------|
G|-------------------------|--------------------------|
D|-77-77-77-77-77-77-66-66-|-777-77-77-77-77-77-66-66-|
A|-44-44-55-55-77-77-77-77-|-444-44-55-55-77-77-77-77-|
D|-------------------------|--------------------------|

Pre Chorus:
E|--------------------------------------------------------------------|
B|--------------------------------------------------------------------|
G|-77777777999999991111111111-13131412-999999997777-14141414-99994444-|
D|-xxxxxxxxxxxxxxxx-x-x-x-x-x--x-x-x-x-xxxxxxxxxxxxx-x-x-x-x-xxxxxxxx-|
A|-5555555577777777-9-9-9-9-9-11111212-777777775555-12121212-77772222-|
D|--------------------------------------------------------------------|

Chorus:
E|-----------------------------------------------------------------|
B|-----------------------------------------------------------------|
G|-----------------------------------------------------------------|
D|-----7-------7-------7-------7-------7-------7-------7-------7---|
A|-----------------------------------------------------------------|
D|-4-4---4-4-4---4-4-4---4-4-4---4-0-0---0-0-0---0-0-0---0-0-0---0-|
   . .   . . .   . . .   . . .   . . .   . . .   . . .   . . .   .

E|-----------------------------------------------------------------|
B|-----------------------------------------------------------------|
G|-------------------------------------1-------1-------1-------1---|
D|-----7-------7-------7-------7-----------------------------------|
A|-----------------------------------------------------------------|
D|-7-7---7-7-7---7-7-7---7-7-7---7-2-2---2-2-2---2-2-2---2-2-2---2-|
   . .   . . .   . . .   . . .   . . .   . . .   . . .   . . .   .

Intro:
E|----------------------------------|
B|----------------------------------|
G|-----------------22222222---------|
D|-77777777777777772222222222222222-|
A|-44444444555555550000000022222222-|
D|-44444444000000000000000022222222-|

Intro Cont.:
E|------------------------------------------------------------------|
B|------------------------------------------------------------------|
G|-14141414141414141414141411111111-6-6-6-6-6-6-6-6-4-4-4-4-4-4-4-4-|
D|--x-x-x-x-x-x-x-x-x-x-x-x-x-x-x-x-x-x-x-x-x-x-x-x-x-x-x-x-x-x-x-x-|
A|-121212121212121212121212-9-9-9-9-4-4-4-4-4-4-4-4-2-2-2-2-2-2-2-2-|
D|------------------------------------------------------------------|

Verse: x2 (UP Strokes)        x2 (Down Strokes)
E|-------------------------|--------------------------|
B|-------------------------|--------------------------|
G|-------------------------|--------------------------|
D|-77-77-77-77-77-77-66-66-|-777-77-77-77-77-77-66-66-|
A|-44-44-55-55-77-77-77-77-|-444-44-55-55-77-77-77-77-|
D|-------------------------|--------------------------|

Pre Chorus:
E|--------------------------------------------------------------------|
B|--------------------------------------------------------------------|
G|-77777777999999991111111111-13131412-999999997777-14141414-99994444-|
D|-xxxxxxxxxxxxxxxx-x-x-x-x-x--x-x-x-x-xxxxxxxxxxxxx-x-x-x-x-xxxxxxxx-|
A|-5555555577777777-9-9-9-9-9-11111212-777777775555-12121212-77772222-|
D|--------------------------------------------------------------------|


Chorus:
E|-----------------------------------------------------------------|
B|-----------------------------------------------------------------|
G|-----------------------------------------------------------------|
D|-----7-------7-------7-------7-------7-------7-------7-------7---|
A|-----------------------------------------------------------------|
D|-4-4---4-4-4---4-4-4---4-4-4---4-0-0---0-0-0---0-0-0---0-0-0---0-|
   . .   . . .   . . .   . . .   . . .   . . .   . . .   . . .   .

E|-----------------------------------------------------------------|
B|-----------------------------------------------------------------|
G|-------------------------------------1-------1-------1-------1---|
D|-----7-------7-------7-------7-----------------------------------|
A|-----------------------------------------------------------------|
D|-7-7---7-7-7---7-7-7---7-7-7---7-2-2---2-2-2---2-2-2---2-2-2---2-|
   . .   . . .   . . .   . . .   . . .   . . .   . . .   . . .   .

Bridge
E|--------------------------------------------------------------------|
B|--------------------------------------------------------------------|
G|--------------------------------------------------------------------|
D|-----------------------------------7h9p7h11p7h9p7h11p7h9p7h11p7h9p7-|
A|--------------------------------------------------------------------|
D|--------------------------------------------------------------------|


E|----------------------------------------------------------------------|
B|----------------------------------------------------------------------|
G|----------------------------------------------------------------------|
D|-7h9p7h11p7h9p7h11p7h9p7h11p7h9p7--7h9p7h11p7h9p7h11p7h9p7h11p7h9p7---|
A|----------------------------------------------------------------------|
D|----------------------------------------------------------------------|
E|----------------------------------------------------------------------|
B|----------------------------------------------------------------------|
G|----------------------------------------------------------------------|
D|-7h9p7h10p7h9p7h10p7h9p7h10p7h9p7--6h8p6h10p6h7p6h9p6h7p6h9p6h7p6-----|
A|----------------------------------------------------------------------|
D|----------------------------------------------------------------------|

E|----------------------------------------------------------------------|
B|----------------------------------------------------------------------|
G|----------------------------------------------------------------------|
D|-7h9p7h11p7h9p7h11p7h9p7h11p7h9p7--7h9p7h11p7h9p7h11p7h9p7h11p7h9p7---|
A|----------------------------------------------------------------------|
D|----------------------------------------------------------------------|
E|----------------------------------------------------------------------|
B|----------------------------------------------------------------------|
G|----------------------------------------------------------------------|
D|-7h9p7h10p7h9p7h10p7h9p7h10p7h9p7--6h8p6h10p6h7p6h9p6h7p6h9p6h7p6-----|
A|----------------------------------------------------------------------|
D|----------------------------------------------------------------------|

Intro:
E|----------------------------------|
B|----------------------------------|
G|-----------------22222222---------|
D|-77777777777777772222222222222222-|
A|-44444444555555550000000022222222-|
D|-44444444000000000000000022222222-|

Intro Cont.:
E|------------------------------------------------------------------|
B|------------------------------------------------------------------|
G|-14141414141414141414141411111111-6-6-6-6-6-6-6-6-4-4-4-4-4-4-4-4-|
D|--x-x-x-x-x-x-x-x-x-x-x-x-x-x-x-x-x-x-x-x-x-x-x-x-x-x-x-x-x-x-x-x-|
A|-121212121212121212121212-9-9-9-9-4-4-4-4-4-4-4-4-2-2-2-2-2-2-2-2-|
D|------------------------------------------------------------------|

Outro
E|--------------------------------------------------------------------------|
B|--------------------------------------------------------------------------|
G|--------------------------------------------------------------------------|
D|--------------------------------------------------------------------------|
A|-8h10p8h11p8h10p8h11p8h10p8h11p8h10p88h10p8h11p8h10p8h11p8h10p8h11p8h10p8-
D|-------------------------------------------------------------------------

E|---------------------------------------------------------------------------|
B|---------------------------------------------------------------------------|
G|---------------------------------------------------------------------------|
D|---------------------------------------------------------------------------|
A|-8h10p8h11p8h10p8h11p8h10p8h11p8h10p8--8h10p8h12p8h10p8h12p10p9p8----------|
D|---------------------------------------------------------------------------|


Guitar 2
--------

Intro:x2
E|----------------------------------|
B|----------------------------------|
G|-----------------2222222222222222-|
D|-77777777777777772222222222222222-|
A|-444444445555555500000000xxxxxxxx-|
D|-44444444000000000000000022222222-|

Verse:x2
E|-------------------------|
B|-------------------------|
G|---9---9---9---9---9---9-|
D|--7-7-7-7-7-7-7-7-6---6--|
A|-0---0---0---0---0---0---|
D|-------------------------|

Pre Chorus:
E|--------------------------------------------------|
B|--------------------------------------------------|
G|-7777777722222222--------222222227777777722222222-|
D|-777777772222222244444444222222227777777722222222-|
A|-xxxxxxxxxxxxxxxx44444444xxxxxxxxxxxxxxxxxxxx0000-|
D|-000000002222222244444444222222220000777722220000-|


Chorus: Guitar 1

Intro:x2
E|----------------------------------|
B|----------------------------------|
G|-----------------2222222222222222-|
D|-77777777777777772222222222222222-|
A|-444444445555555500000000xxxxxxxx-|
D|-44444444000000000000000022222222-|

Verse:x4
E|-------------------------|
B|-------------------------|
G|---9---9---9---9---9---9-|
D|--7-7-7-7-7-7-7-7-6---6--|
A|-0---0---0---0---0---0---|
D|-------------------------|

Pre Chorus:
E|--------------------------------------------------|
B|--------------------------------------------------|
G|-7777777722222222--------222222227777777722222222-|
D|-777777772222222244444444222222227777777722222222-|
A|-xxxxxxxxxxxxxxxx44444444xxxxxxxxxxxxxxxxxxxx0000-|
D|-000000002222222244444444222222220000777722220000-|

Chorus:(This is in an effect form)
E|----------------------------------------------------------|
B|----------------------------------------------------------|
G|-2~------4~------6~------4~-------7~------6~------4~------|
D|----------------------------------------------------------|
A|----------------------------------------------------------|
D|----------------------------------------------------------|

Bridge:x2 (Very Quiet)
E|---------------------------------|
B|---------------------------------|
G|---------------------------------|
D|-4~------7~------7~------6~------|
A|-7~------5~------7~------7~------|
D|-7~------0~------0~------0~------|

Intro:x2
E|----------------------------------|
B|----------------------------------|
G|-----------------2222222222222222-|
D|-77777777777777772222222222222222-|
A|-444444445555555500000000xxxxxxxx-|
D|-44444444000000000000000022222222-|

Viloin part

Intro:x2
E|----------------------------------|
B|----------------------------------|
G|-----------------2222222222222222-|
D|-77777777777777772222222222222222-|
A|-444444445555555500000000xxxxxxxx-|
D|-44444444000000000000000022222222-|

Outro: (Follow Guitar 1)

There you have it!

This will be the best tab you will find on this song. i spent so many days to make thi
tab perfect. i submitted this tab all ready, but it is not nearly as good as this one.
This took me so long so i hope you like it. you are going to have to lisson for timeing.
P.S. the other tab i had smitted i got a four star ratting so i had no choice but to make
this tab. oh yea if you give me another ratting worse then five, dont expect me to tab
another one!





Comments


Popular Yellowcard tabs & chords
Don't You Forget About Me Chords
Fix You Chords
Paper Walls Chords
Rough Landing Holly Chords
Twenty Three Chords
A.W.O.L 1 Tabs
Empty Apartment (Solo) Tabs
Sing For Me 2 Tabs
Fighting Ukulele
Takedown Ukulele


Song lyrics



↑ Back to top | Tablatures and chords are parodies/interpretations of the original songs. You may use it for private study, scholarship, research or language learning purposes only
© 2014 AZChords.com Contact us | Privacy policy | DMCA | Add/correct tabs | Request tabs | Top 50 tabs